Song name
# A B C D E F G H I J K L M N O P Q R S T U V W X Y Z

Wye Oak - Civilian tab

-------------------------------------------------------------------------------
                             CIVILIAN - Wye Oak
-------------------------------------------------------------------------------
Song: Civilian
Band: Wye Oak
Album: Civilian
Tabbed by: Rebecca Rossi
Email: beccata@gmail.com
Tuning: D A D G B E
Capo: 4th Fret

INTRO:
                     
e|------------------------------------------|
B|------------------------------------------| Repeat 4x
G|------0---------------------0-------------|
D|----------------2--------------------2----|
A|----2---------2-----------2--------2------|
D|-2--------0h2---------2--------0h2--------|


Verse/Chorus main picking pattern:
              
                   Em                                  Dsus2/A

e|---------------------------------------|---------------(0)-----------------|
B|---------------------------------------|------3---------3-----3----------- | 
G|------0---------------------0----------|---------------------------0---0---|
D|---------------2--------------------2--|----0-------0-------0--------------|
A|---2--------2----------2---------2-----|-0-------0-------0-------3---2-----|
D|-2------0h2---------2--------0h2-------|-----------------------------------|
     

                   Am                                     C

e|---------------------------------------|-----------------------------------|
B|---------1---------1--------1----------|-----1--------1------1--------0----|
G|----------------2--------------------0-|------------0---------------0------|
D|-----2------0h2---------2----------0---|---2----0h2-------2----0h2---------|
A|--0-------------------0--------0h2-----|-3--------------3------------------|
D|---------------------------------------|-----------------------------------|



************************************

| /   slide up
| \   slide down
| h   hammer-on
| p   pull-off
| ~   vibrato
| +   harmonic
| x   Mute note
| b   Bend
| pb  Pre-bend
| br  Bend release
| pbr Pre-bend release
| brb Bend release bend

************************************
Tap to rate this tab
# A B C D E F G H I J K L M N O P Q R S T U V W X Y Z