Guitaretab - guitar tabs
Song name
# A B C D E F G H I J K L M N O P Q R S T U V W X Y Z
Home / W / Wyrd / My Ghosts tab

Wyrd - My Ghosts tab

WYRD - MY GHOSTS

TUNING - DROP D (low E string down 2 frets)
MAIN RIFF...

GUITAR ONE
e--------------------------------------------------------|
B--------------------------------------------------------|
G---------------------------------------------- PULL ----|
D---3-5-7~-5-3-------------3-5-7~-5-3-10~-8-5-7-8(7)-----|
A-5------------7-5-3-5~--5-------------------------------|
D--------------------------------------------------------|
[ Tab from: http://www.guitaretab.com/w/wyrd/80317.html ]
e--------------------------------------------------------|
B--------------------------------------------------------|
G-----------------------1010101010-12-14-9-999910109-----|
D---3-5-7~-5-3-----------X-X-X-X-X--X--X-X-XXXX-X-XX-----|
A-5------------7-5-3-5~--8-8-8-8-8-10-12-7-7777-8-87-----|
E--------------------------------------------------------|

GUITAR TWO
e--------------------    e----------------------|
B--------------------    B----------------------|
G--------------------    G----------------------|
D--------------------    D----------------------|
A-555-8-888-333-0-000    A-8888888-7-7777-88-7--|
D-555-8-888-333-0-000 X3 D-8888888-7-7777-88-7--| X1

AND REPEAT... ENJOY!!

website...http://www.hateful-metal.de/wyrd.html