Song name
# A B C D E F G H I J K L M N O P Q R S T U V W X Y Z

Wzrd - Live And Learn tab

Just listen to the song and you should know when to come in~MambaMia

The bass part starts the song off but if you're feeling ballsy then i've transposed the 
bass part for another guitar.

[Bass Part](This is played throughout the ENTIRE song without stopping)
((Except for the power chord parts))
---------------------------------------------------------------|e
---------------------------------------------------------------|B
---------------------------------------------------------------|G
---------------------------------------------------------------|D
-6-------------------------------------------------------------|A
4-4--6~6~------------------------------------------------------|E
(Entire part is palm muted)


[Guitar Intro]
----------------------------------------------------------------|e
----------------------------------------------------------------|B
----------------------------------------------------------------|G
----------------------------------------------------------------|D
----------------------------------------------------------------|A
3334443334346666-x4---------------------------------------------|E


[Power Chords]*

---------------------------------------------------------------|e
---------------------------------------------------------------|B
---------------------------------------------------------------|G
66666-----11~~11-11-\\9~9--------------------------------------|D
66666-----11~~11-11-\\9~9-x3-----------------------------------|A
44444------9~~-9--9-\\7~7--------------------------------------|E


*After third time add this little part
-----------------------------|e
-----------------------------|B
-----------------------------|G
-66666--11-11-11\\10\\9~~~---|D
-66666--11-11-11\\10\\9~~~---|A
-44444---9--9--9\\-8\\7~~~---|E


[Guitar Intro]

When you hear the lyrics "I like whiskey, black leather and diamonds" start playing the 
[guitar intro] again.

After bass solo part play the entire [power chord] section twice

[Ending]
[Guitar Intro]
When you stop, listen for the bass part to play it's section 8 times, then play the 
intro until you fade away.


Key
\\=slide down the fret
~=hold the chord( the more of them you see, the longer you hold it)
x3=how many times you play that section before moving on

This is a very easy song, i learned by ear in a in about 15 minutes so you should be 
able to get this in about ten. All the parts are perfect. Much love
to Wzrd for making such a great album.
-MambaMia
Tap to rate this tab
# A B C D E F G H I J K L M N O P Q R S T U V W X Y Z