Song name
# A B C D E F G H I J K L M N O P Q R S T U V W X Y Z

X Japan - Art Of Life tab

Artist: X-Japan 
Title: Art of Life 
Album: Art of Life (1993)

Here is what I managed to figure out for art of life, No Solo!
Only one guitar is tabbed

Good Luck

Guitar_1
                                                                            
E||------------------|------------------|----------0---------------0-------|
B||------------------|------------------|--------0---0-----------0---0-----|
G||------------------|------------------|------0-------0-------0-------0---|
D||------------------|------------------|----2-----------2---2-----------2-|
A||------------------|------------------|--3---------------3---------------|
E||------------------|------------------|----------------------------------|


                                                                      
----------2---------------2-------|----------0---------------0-------|
--------0---0-----------0---0-----|--------0---0-----------0---0-----|
------2-------2-------2-------2---|------0-------0-------0-------0---|
----1-----------1---1-----------1-|----2-----------2---2-----------2-|
--2---------------2---------------|--3---------------3---------------|
----------------------------------|----------------------------------|


                                                                      
----------2---------------2-------|----------0---------------0-------|
--------0---0-----------0---0-----|--------0---0-----------0---0-----|
------2-------2-------2-------2---|------0-------0-------0-------0---|
----1-----------1---1-----------1-|----2-----------2---2-----------2-|
--2---------------2---------------|--3---------------3---------------|
----------------------------------|----------------------------------|


                                                                      
----------2---------------2-------|----------0---------------0-------|
--------0---0-----------0---0-----|--------0---0-----------0---0-----|
------2-------2-------2-------2---|------0-------0-------0-------0---|
----1-----------1---1-----------1-|----2-----------2---2-----------2-|
--2---------------2---------------|--3---------------3---------------|
----------------------------------|----------------------------------|


                                                                      
----------2---------------2-------|----------0---------------0-------|
--------0---0-----------0---0-----|--------0---0-----------0---0-----|
------2-------2-------2-------2---|------0-------0-------0-------0---|
----1-----------1---1-----------1-|----2-----------2---2-----------2-|
--2---------------2---------------|--3---------------3---------------|
----------------------------------|----------------------------------|


                                                                      
----------2---------------2-------|----------0---------------0-------|
--------0---0-----------0---0-----|--------0---0-----------0---0-----|
------2-------2-------2-------2---|------0-------0-------0-------0---|
----1-----------1---1-----------1-|----2-----------2---2-----------2-|
--2---------------2---------------|--3---------------3---------------|
----------------------------------|----------------------------------|


                                                                      
----------2---------------2-------|----------0---------------0-------|
--------0---0-----------0---0-----|--------0---0-----------0---0-----|
------2-------2-------2-------2---|------0-------0-------0-------0---|
----1-----------1---1-----------1-|----2-----------2---2-----------2-|
--2---------------2---------------|--3---------------3---------------|
----------------------------------|----------------------------------|


                                                                      
----------2---------------2-------|----------0---------------0-------|
--------0---0-----------0---0-----|--------0---0-----------0---0-----|
------2-------2-------2-------2---|------0-------0-------0-------0---|
----1-----------1---1-----------1-|----2-----------2---2-----------2-|
--2---------------2---------------|--3---------------3---------------|
----------------------------------|----------------------------------|


                                                                      
----------2---------------2-------|----------0---------------0-------|
--------0---0-----------0---0-----|--------0---0-----------0---0-----|
------2-------2-------2-------2---|------0-------0-------0-------0---|
----1-----------1---1-----------1-|----2-----------2---2-----------2-|
--2---------------2---------------|--3---------------3---------------|
----------------------------------|----------------------------------|


                                                                      
----------2---------------2-------|----------0---------------0-------|
--------0---0-----------0---0-----|--------0---0-----------0---0-----|
------2-------2-------2-------2---|------0-------0-------0-------0---|
----1-----------1---1-----------1-|----2-----------2---2-----------2-|
--2---------------2---------------|--3---------------3---------------|
----------------------------------|----------------------------------|


                                                                      
----------2---------------2-------|----------0---------------0-------|
--------0---0-----------0---0-----|--------0---0-----------0---0-----|
------2-------2-------2-------2---|------0-------0-------0-------0---|
----1-----------1---1-----------1-|----2-----------2---2-----------2-|
--2---------------2---------------|--3---------------3---------------|
----------------------------------|----------------------------------|


                                                                      
----------2---------------2-------|----------0---------------0-------|
--------0---0-----------0---0-----|--------0---0-----------0---0-----|
------2-------2-------2-------2---|------0-------0-------0-------0---|
----1-----------1---1-----------1-|----2-----------2---2-----------2-|
--2---------------2---------------|--3---------------3---------------|
----------------------------------|----------------------------------|


                                                                      
----------2---------------2-------|----------------------------------|
--------0---0-----------0---------|----------0---------------0-------|
------2-------2-------2-----------|------0-----0---0-----0-----0---0-|
----1-----------1---1-------------|----2---2-----2-----2---2-----2---|
--2---------------2---------0-----|----------------------------------|
------------------------------3-2-|--0---------------0---------------|


                                                                      
----------------------------------|----------2---------------2-------|
------0---4-0---0-----0---4-0---0-|------3-----3---3-----3-----3---3-|
----------------------------------|----2---2-----2-----2---2-----2---|
--1-4---4-----4---1-4---4-----4---|--0---------------0---------------|
----------------------------------|----------------------------------|
----------------------------------|----------------------------------|


                                                                      
----------------------------------|----------------------------------|
----------1---------------0-------|----------0---------------0-------|
------0-----0---0-----2-----2---2-|------0-----0---0-----0-----0---0-|
----2---2-----2-----1---1-----1---|----2---2-----2-----2---2-----2---|
--3---------------2---------------|----------------------------------|
----------------------------------|--0---------------0---------------|


                                                                      
----------2---------------2-------|----------------------------------|
------3-----3---3-----3-----3---3-|----------1---------------1-------|
----2---2-----2-----2---2-----2---|------0-----0---0-----0-----0---0-|
--0---------------0---------------|----2---2-----2-----2---2-----2---|
----------------------------------|--3---------------0---------------|
----------------------------------|----------------------------------|


                                                                      
----------2---------------2-------|----------------------------------|
------3-----3---3-----0-----0---0-|----------0---------------0-------|
----2---2-----2-----2---2-----2---|------0-----0---0-----0-----0---0-|
--0---------------1---------------|----2---2-----2-----2---2-----2---|
----------------------------------|----------------------------------|
----------------------------------|--0---------------0---------------|


                                                                      
----------------------------------|----------2---------------2-------|
------0---4-0---0-----0---4-0---0-|------3-----3---3-----3-----3---3-|
----------------------------------|----2---2-----2-----2---2-----2---|
--1-4---4-----4---1-4---4-----4---|--0---------------0---------------|
----------------------------------|----------------------------------|
----------------------------------|----------------------------------|


                                                                      
----------------------------------|----------------------------------|
----------2---------------2-------|----------1---------------1-------|
------2-----2---2-----2-----2---2-|------0-----0---0-----0-----0---0-|
----2---2-----2-----2---2-----2---|----2---2-----2-----2---2-----2---|
--4---------------4---------------|--3---------------3---------------|
----------------------------------|----------------------------------|


                                                                      
----------------------------------|----------2---------------2-------|
----------0-----------1-------1---|------3-----3---3-----0-----0---0-|
------0-----0---0---0---0---0---0-|----2---2-----2-----2---2-----2---|
----0---0-----0---2-------0-------|--0---------------1---------------|
----------------------------------|----------------------------------|
--3-------------------------------|----------------------------------|


                                                                
----------0-----------------|----------------------------------|
------0-----0---0---3-------|----------0---------------0-------|
----0---0-----0-----6-------|------0-----0---0-----0-----0---0-|
--2---------------0---------|----0---0-----0-----0---0-----0---|
------------------7---------|----------------------------------|
----------------------------|--3---------------3---------------|


                                                                      
----------------------------------|----------------------------------|
----------0---------------0-------|----------1---------------1-------|
------2-----2---2-----2-----2---2-|------0-----0---0-----0-----0---0-|
----1---1-----1-----1---1-----1---|----2---2-----2-----2---2-----2---|
--2---------------2---------------|--3---------------3---------------|
----------------------------------|----------------------------------|


                                                                      
----------2---------------2-------|----------------------------------|
------3-----3---3-----3-----3---3-|----------0---------------0-------|
----2---2-----2-----2---2-----2---|------0-----0---0-----0-----0---0-|
--0---------------0---------------|----0---0-----0-----0---0-----0---|
----------------------------------|----------------------------------|
----------------------------------|--3---------------3---------------|


                                                                      
----------------------------------|----------------------------------|
----------0---------------0-------|----------1---------------2-------|
------2-----2---2-----2-----2---2-|------0-----0---0-----2-----2---2-|
----1---1-----1-----1---1-----1---|----2---2-----2-----2---2-----2---|
--2---------------2---------------|--3---------------4---------------|
----------------------------------|----------------------------------|


                                                                      
----------2---------------2-------|----------0-------2-------0-------|
------3-----3---3-----0-----0---0-|------0-----0---0---0---0---0---0-|
----2---2-----2-----2---2-----2---|----0---0-----0-------0-------0---|
--0---------------1---------------|--2-------------------------------|
----------------------------------|----------------------------------|
----------------------------------|----------------------------------|


                                                                      
----------2-------3-------2-------|----------------------------------|
------3-----3---3---3---3---3---3-|----------1-------3-------1-------|
----2---2-----2-------2-------2---|------2-----2---2---2---2---2---2-|
--0-------------------------------|----2---2-----2-------2-------2---|
----------------------------------|--4-------------------------------|
----------------------------------|----------------------------------|


                                                                      
----------------------------------|----------0-------2-------0-------|
----------1---------------0-------|------0-----0---0---0---0---0---0-|
------0-----0---0-----2-----2---2-|----0---0-----0-------0-------0---|
----2---2-----2-----1---1-----1---|--2-------------------------------|
--3---------------2---------------|----------------------------------|
----------------------------------|----------------------------------|


                                                                      
----------2-------3-------2-------|----------2---------------2-------|
------0-----0---0---0---0---0---0-|------3-----3---------0-----0-----|
----2---2-----2-------2-------2---|----2---2-----2-----2---2-----2---|
--1-------------------------------|--0-------------0-1-------------1-|
----------------------------------|----------------------------------|
----------------------------------|----------------------------------|


                                                                    
----------0-----------------|-------------------|------------------|
------0-----0---0---0-------|-------------------|------------------|
----0---0-----0-----4-------|-------------------|------------------|
--2---------------0---------|-------------------|------------------|
------------------7---------|-------------------|------------------|
----------------------------|-------------------|------------------|


                                                                
------------------|--------------------|-----------------------|
------------------|--------------------|-----------------------|
------------------|--------------------|-----------------------|
------------------|--------------------|--0---2------------0-2-|
------------------|----------------2-2-|--------2--------------|
------------------|--------------------|-----------------------|


                                                                     
----------------------|-----------------------|---------------------|
----------------------|-----------------------|---------------------|
----------------------|-----------------------|---------------------|
--4---2-0-------------|--0---2-----------4--2-|--1--------2----4----|
----------------------|--------3--------------|---------------------|
-------------------3--|-----------------------|---------------------|


                                                                  
--------------------|-----------------------|--------------------|
--------------------|-----------------------|--------------------|
--------------------|-----------0-----------|--------------------|
--0--------0--------|--4------------4--2--0-|--0--------0--------|
--3--------7--------|--7--------------------|--3--------7--------|
--------------------|-----------------------|--------------------|


                                                                  
--------------------------------|--------------------------------|
--------------------------------|-----------------------------0--|
--0--------------------0-----2--|-----------------------2-----0--|
--2--------------------2-----4--|-----------------------4--------|
--------------------------------|--------------------------------|
-----0-0--0-0--0-0--0-----0-----|--0--0-0--0-0--0-0--0-----0-----|


                                                                          
--------------------------------|----------------------------------------|
-----------------------0-----0--|----------------------------------------|
-----------------------0-----0--|----------------------------------------|
--------------------------------|----------------------------------------|
--------------------------------|----------------------------------------|
--0--0-0--0-0--0-0--0-----0-----|--0--0-0--0-0--0-0--0-0--0-0--0-0--0-0--|


                                                                  
--------------------------------|--------------------------------|
--------------------------------|-----------------------------0--|
--0--------------------0-----2--|-----------------------2-----0--|
--2--------------------2-----4--|-----------------------4--------|
--------------------------------|--------------------------------|
-----0-0--0-0--0-0--0-----0-----|--0--0-0--0-0--0-0--0-----0-----|


                                                                          
--------------------------------|----------------------------------------|
-----------------------0-----0--|----------------------------------------|
-----------------------0-----0--|----------------------------------------|
--------------------------------|----------------------------------------|
--------------------------------|----------------------------------------|
--0--0-0--0-0--0-0--0-----0-----|--0--0-0--0-0--0-0--0-0--0-0--0-0--0-0--|


                                                                          
------------------------------------|------------------------------------|
------------------------------------|------------------------------------|
--2--2--2-2--2--2--2--2--2-2--2--2--|--2--2--2-2--2--2--2--2--2-2--2--2--|
--0--0--0----0-----0--0--0----0-----|--0--0--0----0-----0--0--0----0-----|
----------0-----0----------0-----0--|----------0-----0----------0-----0--|
------------------------------------|------------------------------------|


                                                                           
--------------------------------|-----------------------------------------|
-----------------------------0--|------------0----------------------------|
--0--------------------0-----0--|------------0----------------------------|
--2--------------------2--------|-----------------------------------------|
--------------------------------|-----------------------------------------|
-----0-0--0-0--0-0--0-----0-----|--0-0--0-0-----0-0--0-0--0-0--0-0--0--0--|


                                                                          
------------------------------------|------------------------------------|
------------------------------------|------------------------------------|
--2--2--2-2--2--2--2--2--2-2--2--2--|--2--2--2-2--2--2--2--2--2-2--2--2--|
--0--0--0----0-----0--0--0----0-----|--0--0--0----0-----0--0--0----0-----|
----------0-----0----------0-----0--|----------0-----0----------0-----0--|
------------------------------------|------------------------------------|


                                                                              
-------------------|-------------------|-------------------------------------|
-------------------|-------------------|-------------------------------------|
-------------------|-------------------|-------------------------------------|
--0----------------|--0----------------|------------0------------0--------2--|
--3----------------|--7----------------|----------------------------------0--|
-------------------|-------------------|--0-0--0-0--3--0-0--0-0--3--0--0-----|


                                                                            
-------------------------------------|-------------------------------------|
-------------------------------------|-------------------------------------|
-------------------------------------|-------------------------------------|
------------0------------0--------2--|------------0------------0--------2--|
----------------------------------0--|----------------------------------0--|
--0-0--0-0--3--0-0--0-0--3--0--0-----|--0-0--0-0--3--0-0--0-0--3--0--0-----|


                                                                
-------------------------|-------------------------------------|
-------------------------|-------------------------------------|
-------------0--------0--|-------------------------------------|
----4-----4--0--4-----0--|------------0------------0--------2--|
----5-----5-----5--------|----------------------------------0--|
-------------------------|--0-0--0-0--3--0-0--0-0--3--0--0-----|


                                                                            
-------------------------------------|-------------------------------------|
-------------------------------------|-------------------------------------|
-------------------------------------|-------------------------------------|
------------0------------0--------2--|------------0------------0--------2--|
----------------------------------0--|----------------------------------0--|
--0-0--0-0--3--0-0--0-0--3--0--0-----|--0-0--0-0--3--0-0--0-0--3--0--0-----|


                                                                  
-------------------------|-------------------|-------------------|
-------------------------|-------------------|-------------------|
-------------0--------0--|-------------------|-------------------|
----4-----4--0--4-----0--|--0----------------|--0----------------|
----5-----5-----5--------|--3----------------|--7----------------|
-------------------------|-------------------|-------------------|


                                                          
-------------------------------------|-------------------|
-------------------------------------|-------------------|
-------------------------------------|-------------------|
------------0------------0--------2--|-------------------|
----------------------------------0--|-------------------|
--0-0--0-0--3--0-0--0-0--3--0--0-----|-------------------|


                                                                              
--------------------------------------|--------------------------------------|
--------------------------------------|--------------------------------------|
--------------------------------------|--------------------------------------|
--------------------------------------|--------------------------------------|
--2--2--2--2--2--2--2--2--2--2--2--2--|--2--2--2--2--2--2--2--2--2--2--2--2--|
--0--0--0-----0-----0--0--0-----0-----|--0--0--0-----0-----0--0--0-----0-----|


                                                                          
------------------------------------|------------------------------------|
------------------------------------|------------------------------------|
------------------------------------|------------------------------------|
--0--0--0-0--0--0--0--0--0-0--0--0--|--0--0--0-0--0--0--0--0--0-0--0--0--|
------------------------------------|------------------------------------|
--3--3--3----3-----3--3--3----3-----|--3--3--3----3-----3--3--3----3-----|


                                                                          
------------------------------------|------------------------------------|
------------------------------------|------------------------------------|
--2--2--2-2--2--2--2--2--2-2--2--2--|--2--2--2-2--2--2--2--2--2-2--2--2--|
--0--0--0----0-----0--0--0----0-----|--0--0--0----0-----0--0--0----0-----|
----------0-----0----------0-----0--|----------0-----0----------0-----0--|
------------------------------------|------------------------------------|


                                                         
------------------------------|-------------------------|
--0--0--0-0--0--0--0--0--0----|-------------------------|
------------------------------|-------------------0-----|
--2--2--2----2-----2--2--2----|----------------------4--|
----------2-----2-------------|-------------0-----------|
------------------------------|----3--2--3-----3--------|


                                                                            
------------------------------------|--------------------------------------|
------------------------------------|--------------------------------------|
------------------------------------|--------------------------------------|
------------------------------------|--------------------------------------|
--2--2--2-2--2--2--2--2--2-2--2--2--|--2--2--2--2--2--2--2--2--2--2--2--2--|
--0--0--0----0-----0--0--0----0-----|--0--0--0-----0-----0--0--0-----0-----|


                                                                               
-------------------|----------------------|-----------------------------------|
-------------------|----------------------|-----------------------------------|
-------------------|----------------------|-----------------------------------|
--0----------------|---------0------2-----|--0--0--0-0--0-0--0--0--0-0--0--0--|
--3----------------|--3-------------------|-----------------------------------|
-------------------|----------------------|-----------------------------------|


                                                                   
-------------------------------|----------------------------------|
-------------------------------|----------------------------------|
-------------------------------|----------------------------------|
--1--1--1--1--1-1--1-----1--4--|--2--2--2-2--2-2--2--2--2-2--2-2--|
----------------------2--------|----------------------------------|
-------------------------------|----------------------------------|


                                                                   
--------------------------|-------------------|-------------------|
--------------------------|-------------------|-------------------|
--------------------------|-------------------|-------------------|
-----2--------2-----0-----|--0----------------|--0----------------|
--------------------------|--3----------------|--7----------------|
--0-----0--0--------------|-------------------|-------------------|


                                                                             
-------------------|-------------------|------------------------------------|
-------------------|-------------------|------------------------------------|
-------------------|-------------------|--0--0--0-0--0--0--0--0--0-0--0--0--|
-------------------|-------------------|------------------------------------|
--0----------------|--4----------------|--3--3--3----3-----3--3--3----3-----|
--3----------------|--7----------------|----------3-----3----------3-----3--|


                                                                          
------------------------------------|------------------------------------|
------------------------------------|------------------------------------|
--2--2--2-2--2--2--2--2--2-2--2--2--|--2--2--2-2--2--2--2--2--2-2--2--2--|
------------------------------------|--0--0--0----0-----0--0--0----0-----|
--4--4--4----4-----4--4--4----4-----|----------0-----0----------0-----0--|
----------4-----4----------4-----4--|------------------------------------|


                                                                        
-------------------------------|-------------------|-------------------|
-------------------------------|-------------------|-------------------|
-------------------------------|-------------------|-------------------|
--4--4--4-4--4--4--4-----------|--0----------------|--0----------------|
--2--2--2----2-----2--0-----2--|--3----------------|--7----------------|
----------2-----2--------------|-------------------|-------------------|


                                                                                
-------------------|-------------------|-------------------|-------------------|
-------------------|-------------------|-------------------|-------------------|
-------------------|-------------------|-------------------|-------------------|
-------------------|-------------------|--0----------------|--0----------------|
--0----------------|--4----------------|--3----------------|--7----------------|
--3----------------|--7----------------|-------------------|-------------------|


                                                                           
-------------------------------------|------------------------------------|
-------------------------------------|---------------------------------0--|
------------0------------0--------2--|------------2------------2-------0--|
------------2------------2--------4--|------------4------------4----------|
-------------------------------------|------------------------------------|
--0-0--0-0-----0-0--0-0-----0--0-----|--0-0--0-0-----0-0--0-0-----0-0-----|


                                                                            
-------------------------------------|-------------------------------------|
------------0------------0--------0--|------------0------------0--------0--|
------------0------------0--------0--|------------0------------0--------0--|
-------------------------------------|-------------------------------------|
-------------------------------------|-------------------------------------|
--0-0--0-0-----0-0--0-0-----0--0-----|--0-0--0-0-----0-0--0-0-----0--0-----|


                                                                            
-------------------------------------|-------------------------------------|
-------------------------------------|----------------------------------0--|
------------0------------0--------2--|------------2------------2--------0--|
------------2------------2--------4--|------------4------------4-----------|
-------------------------------------|-------------------------------------|
--0-0--0-0-----0-0--0-0-----0--0-----|--0-0--0-0-----0-0--0-0-----0--0-----|


                                                                            
-------------------------------------|-------------------------------------|
------------0------------0--------0--|------------0------------0--------0--|
------------0------------0--------0--|------------0------------0--------0--|
-------------------------------------|-------------------------------------|
-------------------------------------|-------------------------------------|
--0-0--0-0-----0-0--0-0-----0--0-----|--0-0--0-0-----0-0--0-0-----0--0-----|


                                                                            
-------------------|------------------|------------------------------------|
-------------------|------------------|------------------------------------|
--0----------------|------------------|--1--------1------------1--------2--|
--3----------------|------------------|--2--------2------------2--------3--|
-------------------|------------------|------------------------------------|
-------------------|------------------|-----0--0-----0-0--0-0-----0--0-----|


                                                                            
-------------------------------------|-------------------------------------|
----------------------------------0--|------------0------------0--------0--|
------------2------------2--------1--|------------1------------1--------1--|
------------3------------3-----------|-------------------------------------|
-------------------------------------|-------------------------------------|
--0-0--0-0-----0-0--0-0-----0--0-----|--0-0--0-0-----0-0--0-0-----0--0-----|


                                                                               
--------------------------------------|-------------------|-------------------|
------------0------------0------------|-------------------|-------------------|
------------1------------1------------|--0----------------|----------0--------|
--------------------------------------|--3----------------|----------3--------|
--------------------------------------|-------------------|-------------------|
--0-0--0-0-----0-0--0-0-----0-0--0-0--|-------------------|-------------------|


                                                                               
-------------------|------------------|-------------------|-------------------|
-------------------|------------------|-------------------|-------------------|
--0----------------|------------------|-------------------|-------------------|
--7----------------|------------------|--0----------------|--0----------------|
-------------------|------------------|--3----------------|--2----------------|
-------------------|------------------|-------------------|-------------------|


                                                                             
-------------------|------------------|------------------|------------------|
-------------------|------------------|------------------|------------------|
-------------------|------------------|------------------|------------------|
-------------------|------------------|------------------|------------------|
--0----------------|------------------|------------------|------------------|
--7----------------|------------------|------------------|------------------|


                                                                                
-------------------|-------------------|-------------------|-------------------|
-------------------|-------------------|-------------------|-------------------|
-------------------|-------------------|-------------------|-------------------|
-------------------|-------------------|--0----------------|--0----------------|
--0----------------|--0----------------|--3----------------|--2----------------|
--3----------------|--3----------------|-------------------|-------------------|


                                                                             
-------------------|------------------|------------------|------------------|
-------------------|------------------|------------------|------------------|
-------------------|------------------|------------------|------------------|
-------------------|------------------|------------------|------------------|
--0----------------|------------------|------------------|------------------|
--7----------------|------------------|------------------|------------------|


                                                                               
-------------------|-------------------|-------------------|------------------|
-------------------|-------------------|-------------------|------------------|
-------------------|-------------------|-------------------|------------------|
-------------------|-------------------|-------------------|------------------|
--0----------------|--2----------------|--0----------------|------------------|
--3----------------|--4----------------|--7----------------|------------------|


                                                                             
------------------|------------------|-------------------|------------------|
------------------|------------------|-------------------|------------------|
------------------|------------------|-------------------|------------------|
------------------|------------------|-------------------|------------------|
------------------|------------------|--0----------------|------------------|
------------------|------------------|--3----------------|------------------|


                                                                               
-------------------|-------------------|-------------------|------------------|
-------------------|-------------------|-------------------|------------------|
-------------------|-------------------|-------------------|------------------|
--0----------------|--4----------------|-------------------|------------------|
--3----------------|--7----------------|--0----------------|------------------|
-------------------|-------------------|--7----------------|------------------|


                                                                              
------------------|------------------|-------------------|-------------------|
------------------|------------------|-------------------|-------------------|
------------------|------------------|-------------------|-------------------|
------------------|------------------|-------------------|-------------------|
------------------|------------------|--0----------------|--2----------------|
------------------|------------------|--3----------------|--4----------------|


                                                                            
-------------------|------------------|------------------------------------|
-------------------|------------------|------------------------------------|
-------------------|------------------|------------------------------------|
-------------------|------------------|--2--2--2-2--2--2--2--2--2-2--2--2--|
--0----------------|------------------|--0--0--0----0-----0--0--0----0-----|
--7----------------|------------------|----------0-----0----------0-----0--|


                                                                          
------------------------------------|------------------------------------|
------------------------------------|------------------------------------|
------------------------------------|------------------------------------|
--2--2--2-2--2--2--2--2--2-2--2--2--|------------------------------------|
--0--0--0----0-----0--0--0----0-----|--3--3--3-3--3--3--3--3--3-3--3--3--|
----------0-----0----------0-----0--|--1--1--1----1-----1--1--1----1-----|


                                                                          
------------------------------------|------------------------------------|
------------------------------------|------------------------------------|
------------------------------------|------------------------------------|
------------------------------------|--0--0--0-0--0--0--0--0--0-0--0--0--|
--3--3--3-3--3--3--3--3--3-3--3--3--|------------------------------------|
--1--1--1----1-----1--1--1----1-----|--2--2--2----2-----2--2--2----2-----|


                                                                          
------------------------------------|------------------------------------|
------------------------------------|------------------------------------|
------------------------------------|------------------------------------|
--0--0--0-0--0--0--0--0--0-0--0--0--|--0--0--0-0--0--0--0--0--0-0--0--0--|
------------------------------------|------------------------------------|
--2--2--2----2-----2--2--2----2-----|--3--3--3----3-----3--3--3----3-----|


                                                                          
------------------------------------|------------------------------------|
------------------------------------|------------------------------------|
------------------------------------|------------------------------------|
--2--2--2-2--2--2--2--2--2-2--2--2--|--2--2--2-2--2--2--2--2--2-2--2--2--|
------------------------------------|--0--0--0----0-----0--0--0----0-----|
--4--4--4----4-----4--4--4----4-----|----------0-----0----------0-----0--|


                                                                          
------------------------------------|------------------------------------|
------------------------------------|------------------------------------|
------------------------------------|--0--0--0-0--0--0--0--0--0-0--0--0--|
--2--2--2-2--2--2--2--2--2-2--2--2--|------------------------------------|
--0--0--0----0-----0--0--0----0-----|--3--3--3----3-----3--3--3----3-----|
----------0-----0----------0-----0--|----------3-----3----------3-----3--|


                                                                          
------------------------------------|------------------------------------|
------------------------------------|------------------------------------|
--0--0--0-0--0--0--0--0--0-0--0--0--|--2--2--2-2--2--2--2--2--2-2--2--2--|
------------------------------------|------------------------------------|
--3--3--3----3-----3--3--3----3-----|--4--4--4----4-----4--4--4----4-----|
----------3-----3----------3-----3--|----------4-----4----------4-----4--|


                                                                          
------------------------------------|------------------------------------|
------------------------------------|------------------------------------|
--2--2--2-2--2--2--2--2--2-2--2--2--|--2--2--2-2--2--2--2--2--2-2--2--2--|
------------------------------------|--0--0--0----0-----0--0--0----0-----|
--4--4--4----4-----4--4--4----4-----|----------0-----0----------0-----0--|
----------4-----4----------4-----4--|------------------------------------|


                                                                     
-------------------------------|------------------------------------|
-------------------------------|------------------------------------|
-------------------------------|--0--0--0-0--0--0--0--0--0-0--0--0--|
--4--4--4-4--4--4--4-----------|------------------------------------|
--2--2--2----2-----2--0-----2--|--3--3--3----3-----3--3--3----3-----|
----------2-----2--------------|----------3-----3----------3-----3--|


                                                                          
------------------------------------|------------------------------------|
------------------------------------|------------------------------------|
--2--2--2-2--2--2--2--2--2-2--2--2--|------------------------------------|
--0--0--0----0-----0--0--0----0-----|--4--4--4-4--4--4--4--4--4-4--4--4--|
----------0-----0----------0-----0--|--2--2--2----2-----2--2--2----2-----|
------------------------------------|----------2-----2----------2-----2--|


                                                                          
------------------------------------|------------------------------------|
------------------------------------|------------------------------------|
------------------------------------|--0--0--0-0--0--0--0--0--0-0--0--0--|
------------------------------------|------------------------------------|
--2--2--2-2--2--2--2--2--2-2--2--2--|--3--3--3----3-----3--3--3----3-----|
--0--0--0----0-----0--0--0----0-----|----------3-----3----------3-----3--|


                                                                          
------------------------------------|------------------------------------|
------------------------------------|------------------------------------|
--2--2--2-2--2--2--2--2--2-2--2--2--|--2--2--2-2--2--2--2--2--2-2--2--2--|
------------------------------------|--0--0--0----0-----0--0--0----0-----|
--4--4--4----4-----4--4--4----4-----|----------0-----0----------0-----0--|
----------4-----4----------4-----4--|------------------------------------|


                                                                     
-------------------------------|------------------------------------|
-------------------------------|------------------------------------|
-------------------------------|--0--0--0-0--0--0--0--0--0-0--0--0--|
--4--4--4-4--4--4--4-----------|------------------------------------|
--2--2--2----2-----2--0-----2--|--3--3--3----3-----3--3--3----3-----|
----------2-----2--------------|----------3-----3----------3-----3--|


                                                                          
------------------------------------|------------------------------------|
------------------------------------|--0--0--0-0--0--0--0--0--0-0--0--0--|
--2--2--2-2--2--2--2--2--2-2--2--2--|------------------------------------|
--0--0--0----0-----0--0--0----0-----|--1--1--1----1-----1--1--1----1-----|
----------0-----0----------0-----0--|----------1-----1----------1-----1--|
------------------------------------|------------------------------------|


                                                                          
------------------------------------|------------------------------------|
--0--0--0-0--0--0--0--0--0-0--0--0--|------------------------------------|
------------------------------------|--0--0--0-0--0--0--0--0--0-0--0--0--|
--2--2--2----2-----2--2--2----2-----|------------------------------------|
----------2-----2----------2-----2--|--3--3--3----3-----3--3--3----3-----|
------------------------------------|----------3-----3----------3-----3--|


                                                                              
------------------------------------|-------------------|--------------------|
------------------------------------|-------------------|--------------------|
--0--0--0-0--0--0--0--0--0-0--0--0--|-------------------|--------------------|
------------------------------------|--0----------------|--4-----------------|
--3--3--3----3-----3--3--3----3-----|--7----------------|--6--------4--------|
----------3-----3----------3-----3--|-------------------|-----------7--------|


                                                                                
---------------------------------------|---------------------------------------|
---------------------------------------|---------------------------------------|
---------------------------------------|---------------------------------------|
-------------0-------------0--------2--|-------------0-------------0--------2--|
------------------------------------0--|------------------------------------0--|
--0-0--0--0--3--0-0--0--0--3--0--0-----|--0-0--0--0--3--0-0--0--0--3--0--0-----|


                                                                  
---------------------------------------|-------------------------|
---------------------------------------|-------------------------|
---------------------------------------|-------------0--------0--|
-------------0-------------0--------2--|----4-----4--0--4-----0--|
------------------------------------0--|----5-----5-----5--------|
--0-0--0--0--3--0-0--0--0--3--0--0-----|-------------------------|


                                                                            
-------------------------------------|-------------------------------------|
-------------------------------------|-------------------------------------|
-------------------------------------|-------------------------------------|
------------0------------0--------2--|------------0------------0--------2--|
----------------------------------0--|----------------------------------0--|
--0-0--0-0--3--0-0--0-0--3--0--0-----|--0-0--0-0--3--0-0--0-0--3--0--0-----|


                                                         
-------------------------------------|------------------|
-------------------------------------|------------------|
-------------------------------------|------------------|
------------0------------0--------2--|------------------|
----------------------------------0--|------------------|
--0-0--0-0--3--0-0--0-0--3--0--0-----|------------------|


                                                                             
--------------------------------------|-------------------------------------|
------------0------------0------------|--0----------------------------------|
------------0------------0------------|--0------------2------------0--------|
--------------------------------------|---------------4------------2--------|
--------------------------------------|-------------------------------------|
--0-0--0-0-----0-0--0-0-----0-0--0-0--|-----0-0--0-0-----0-0--0-0-----0--0--|


                                                                             
--------------------------------------|-------------------------------------|
--------------------------------------|-------------------------------------|
------------0------------0------------|--0----------------------------------|
--------------------------------------|---------------4------------2--------|
--3-3--3-3-----3-3--3-3-----3-3--3-3--|-----3-3--3-3-----3-3--3-3-----3--3--|
--------------------------------------|-------------------------------------|


                                                                          
--------------------------------------|----------------------------------|
--------------------------------------|----------------------------------|
------------2-------------------------|--2----------------------------2--|
--0-0--0-0-----0-0--0-0--4--0-0--0-0--|-----0-0--0-0--4--0-0--0-0--4-----|
--------------------------------------|----------------------------------|
--------------------------------------|----------------------------------|


                                                                
-------------------------------|-------------------------------|
-------------------------------|-------------------------------|
-------------------------------|-------------------------------|
--0--0--0-0--0--0--0-----------|--4--4--4-4--4--4--------------|
----------------------0--------|--2--2--2----2-----2--0--------|
--3--3--3----3-----3--------3--|----------2-----2--------3--2--|


                                                                             
--------------------------------------|-------------------------------------|
------------0------------0------------|--0----------------------------------|
------------0------------0------------|--0------------2------------0--------|
--------------------------------------|---------------4------------2--------|
--------------------------------------|-------------------------------------|
--0-0--0-0-----0-0--0-0-----0-0--0-0--|-----0-0--0-0-----0-0--0-0-----0--0--|


                                                                                
-------------------|----------------------|------------------------------------|
-------------------|----------------------|------------------------------------|
-------------------|----------------------|--2--2--2-2--2--2--2--2--2-2--2--2--|
--0----------------|---------0------2-----|--0--0--0----0-----0--0--0----0-----|
--3----------------|--3-------------------|----------0-----0----------0-----0--|
-------------------|----------------------|------------------------------------|


                                                                     
-------------------------------|------------------------------------|
--0--0--0-0--0--0--------------|--0--0--0-0--0--0--0--0--0-0--0--0--|
-------------------------------|------------------------------------|
--1--1--1----1-----1-----1--4--|--2--2--2----2-----2--2--2----2-----|
----------1-----1-----2--------|----------2-----2----------2-----2--|
-------------------------------|------------------------------------|


                                                                   
--------------------------|-------------------|-------------------|
--0--------0--------------|-------------------|-------------------|
--------------------2-----|-------------------|-------------------|
--------------------------|--0----------------|--0----------------|
--------------------------|--3----------------|--7----------------|
-----0--0-----0--0--------|-------------------|-------------------|


                                                                             
-------------------|-------------------|------------------------------------|
-------------------|-------------------|------------------------------------|
-------------------|-------------------|--0--0--0-0--0--0--0--0--0-0--0--0--|
-------------------|-------------------|------------------------------------|
--0----------------|--4----------------|--3--3--3----3-----3--3--3----3-----|
--3----------------|--7----------------|----------3-----3----------3-----3--|


                                                                          
------------------------------------|------------------------------------|
------------------------------------|------------------------------------|
--2--2--2-2--2--2--2--2--2-2--2--2--|--2--2--2-2--2--2--2--2--2-2--2--2--|
------------------------------------|--0--0--0----0-----0--0--0----0-----|
--4--4--4----4-----4--4--4----4-----|----------0-----0----------0-----0--|
----------4-----4----------4-----4--|------------------------------------|


                                                                        
-------------------------------|-------------------|-------------------|
-------------------------------|-------------------|-------------------|
-------------------------------|-------------------|-------------------|
--4--4--4-4--4--4--4-----------|--0----------------|--0----------------|
--2--2--2----2-----2--0-----2--|--3----------------|--7----------------|
----------2-----2--------------|-------------------|-------------------|


                                                                                
-------------------|-------------------|-------------------|-------------------|
-------------------|-------------------|-------------------|-------------------|
-------------------|-------------------|-------------------|-------------------|
-------------------|-------------------|--0----------------|--0----------------|
--0----------------|--4----------------|--3----------------|--7----------------|
--3----------------|--7----------------|-------------------|-------------------|


                                                                               
---------------------------------------|--------------------------------------|
---------------------------------------|-----------------------------------0--|
-------------0-------------0--------2--|-------------2-------------2-------0--|
-------------2-------------2--------4--|-------------4-------------4----------|
---------------------------------------|--------------------------------------|
--0-0--0--0-----0-0--0--0-----0--0-----|--0-0--0--0-----0-0--0--0-----0-0-----|


                                                                                
---------------------------------------|---------------------------------------|
-------------0-------------0--------0--|-------------0-------------0--------0--|
-------------0-------------0--------0--|-------------0-------------0--------0--|
---------------------------------------|---------------------------------------|
---------------------------------------|---------------------------------------|
--0-0--0--0-----0-0--0--0-----0--0-----|--0-0--0--0-----0-0--0--0-----0--0-----|


                                                                                
---------------------------------------|---------------------------------------|
---------------------------------------|------------------------------------0--|
-------------0-------------0--------2--|-------------2-------------2--------0--|
-------------2-------------2--------4--|-------------4-------------4-----------|
---------------------------------------|---------------------------------------|
--0-0--0--0-----0-0--0--0-----0--0-----|--0-0--0--0-----0-0--0--0-----0--0-----|


                                        
---------------------------------------|
-------------0-------------0--------0--|
-------------0-------------0--------0--|
---------------------------------------|
---------------------------------------|
--0-0--0--0-----0-0--0--0-----0--0-----|


                                                               
------------------------------------------|-------------------|
-------------0-------------0--------------|-------------------|
-------------0-------------0--------------|--0----------------|
------------------------------------------|--3----------------|
------------------------------------------|-------------------|
--0-0--0--0-----0-0--0--0-----0--0--0--0--|-------------------|


                                                           
------------------|-------------------|-------------------|
------------------|-------------------|-------------------|
------------------|--0----------------|----------0--------|
------------------|--3----------------|----------3--------|
------------------|-------------------|-------------------|
------------------|-------------------|-------------------|


                                                                                
----------------------------------------------|--------------------------------|
----------------------------------------------|--------------------------------|
----------------------------------------------|--------------------------------|
----------------------------------------------|--------------------------------|
--2-2--2--2--2-2--2--2--2-2--2--2--2-2--2--2--|--2-2--2--2--2-2--2--2----------|
--0----0-----0----0-----0----0-----0----0-----|--0----0-----0----0-------------|


                                               
----------------------------------------------|
----------------------------------------------|
----------------------------------------------|
----------------------------------------------|
--2-2--2--2--2-2--2--2--2-2--2--2--2-2--2--2--|
--0----0-----0----0-----0----0-----0----0-----|


                                                                   
----------------------------------------------|-------------------|
----------------------------------------------|-------------------|
----------------------------------------------|--0----------------|
----------------------------------------------|--3----------------|
--2-2--2--2--2-2--2--2--2-2--2--2--2-2--2--2--|-------------------|
--0----0-----0----0-----0----0-----0----0-----|-------------------|


                                                           
------------------|-------------------|-------------------|
------------------|-------------------|-------------------|
------------------|--0----------------|----------0--------|
------------------|--3----------------|----------3--------|
------------------|-------------------|-------------------|
------------------|-------------------|-------------------|


                                                                                
----------------------------------------------|--------------------------------|
----------------------------------------------|--------------------------------|
----------------------------------------------|--------------------------------|
----------------------------------------------|--------------------------------|
--2-2--2--2--2-2--2--2--2-2--2--2--2-2--2--2--|--2-2--2--2--2-2--2--2----------|
--0----0-----0----0-----0----0-----0----0-----|--0----0-----0----0-------------|


                                               
----------------------------------------------|
----------------------------------------------|
----------------------------------------------|
----------------------------------------------|
--2-2--2--2--2-2--2--2--2-2--2--2--2-2--2--2--|
--0----0-----0----0-----0----0-----0----0-----|


                                                                   
----------------------------------------------|-------------------|
----------------------------------------------|-------------------|
----------------------------------------------|--0----------------|
----------------------------------------------|--3----------------|
--2-2--2--2--2-2--2--2--2-2--2--2--2-2--2--2--|-------------------|
--0----0-----0----0-----0----0-----0----0-----|-------------------|


                                                                              
------------------|-------------------|------------------|-------------------|
------------------|-------------------|------------------|-------------------|
------------------|-------------------|------------------|--0----------------|
------------------|--4----------------|------------------|--3----------------|
------------------|--7----------------|------------------|-------------------|
------------------|-------------------|------------------|-------------------|


                                                                               
------------------|-------------------|-------------------|-------------------|
------------------|-------------------|-------------------|-------------------|
------------------|-------------------|-------------------|-------------------|
------------------|-------------------|-------------------|-------------------|
------------------|--0----------------|--2----------------|--0----------------|
------------------|--3----------------|--4----------------|--7----------------|


                                                                            
------------------|------------------|------------------|------------------|
------------------|------------------|------------------|------------------|
------------------|------------------|------------------|------------------|
------------------|------------------|------------------|------------------|
------------------|------------------|------------------|------------------|
------------------|------------------|------------------|------------------|


                                                                            
------------------|------------------|------------------|------------------|
------------------|------------------|------------------|------------------|
------------------|------------------|------------------|------------------|
------------------|------------------|------------------|------------------|
------------------|------------------|------------------|------------------|
------------------|------------------|------------------|------------------|


                                                                               
------------------|------------------|-------------------|--------------------|
------------------|------------------|-------------------|--------------------|
------------------|------------------|-------------------|--------------------|
------------------|------------------|-------------------|--------------------|
------------------|------------------|--0----------------|--------------0-----|
------------------|------------------|--7----------------|--------------7-----|


                                                                               
----------------------------|-----------------------|-------------------------|
----------------------------|-----------------------|-------------------------|
----------------------------|-----------0-----------|-------------------------|
--2-------------------------|-----------------------|-------------------------|
--0----0-------3------------|--0--------3-----2-----|--3-------------0--------|
---------3-1-0-1----1-0-1-2-|--3-----------------3--|--1-----1-0-1-2-3--------|


                                                                    
--------------------|-------------------------|--------------------|
--------------------|-------------------------|--------------------|
--------------------|-------------------------|--------------------|
--0--------4--------|-------------------------|--------------------|
--3--------7--------|--3-------------0--------|--2--------0--------|
--------------------|--1-----1-0-1-2-3--------|--4--------7--------|


                                                                      
-------------------|--------------------|----------------------------|
-------------------|--------------------|----------------------------|
-------------------|--------------------|----------------------------|
-------------------|--------------------|--2-------------------------|
-------------------|--0--------2--------|--0----0-------3------------|
--3----------------|--3--------4--------|---------3-1-0-1----1-0-1-2-|


                                                                          
-----------------------|-------------------------|-----------------------|
-
Tap to rate this tab
 
# A B C D E F G H I J K L M N O P Q R S T U V W X Y Z