Song name
# A B C D E F G H I J K L M N O P Q R S T U V W X Y Z

X Japan - Without You tab

This is song from Yoshiki's "Without You" from piano to guitar. I learned this by ear. 
I recommend finger picking this. Play it with a slow smooth speed. 
Enjoy.

-Marty
vorachuck@hotmail.com


Repeat this Section Twice*               *Continue Down
[------------------ | ----------------]   [-------------------]           
[-------9-10-9----- | ----------------]   [-------------------]
[---------------9-- | ---7--9--7------]   [---------7---7--9--]
[------------------ | ------------7~--]   [------9------------]
[---12------------- | ----------------]   [---9---------0--0--]
[------------------ |-----------------]   [-------------------]



Repeat this Section Twice*               *Start From Beginning
[------------------ | ----------------]   [----------------------]           
[-------9-10-9----- | ----------------]   [------------5---------]
[---------------9-- | ---7--9--7------]   [---------7------7--9--]
[------------------ | ------------7~--]   [------7---------------]
[---12------------- | ----------------]   [----------------9--0--]
[------------------ |-----------------]   [----------------------]

Guitar Legend
Vibrato ~ 

Thank You!!!


Tap to rate this tab
 
# A B C D E F G H I J K L M N O P Q R S T U V W X Y Z