Guitaretab - guitar tabs
Song name
# A B C D E F G H I J K L M N O P Q R S T U V W X Y Z

X Japan - Silent Jealousy tab

-------------------------------------------------------------------------------
			     Silent Jealousy-X Japan
-------------------------------------------------------------------------------
Tabbed by: A Sexi beast
WARNING SONG WAS 2 LONG SO I FORGOT SOME PARTS AND IM JUST 14
SO DONíT BE A DICK                                                     M=MAHOOSE
Tuning: Preferably down 1/ 2 step but standard works 2

Repeat 4 times I think
e|-----------------------|-----------------------------------------------------|
B|-----------------------|-------------------5---------------------------------|
G|-2-----4------5--------|-2-----4-----5-----5---7--5--7--5-------4--5---------|
D|-2-----5------7--------|-2-----5-----7---------7--5--7--5-------4--5---------|
A|---0-0----0-0---0-0-0-0|--0-0----0-0---0-0----------------0-0-0--------------|
E|-----------------------|-----------------------------------------------------|

1rst mini solo
e|------13--12--10------10--12-13-12-12----13--12-10---------------------------|
B|------------------13--------------------------------13--12--13---------------|
G|--10----------------------------------10-------------------------------------|
D|-----------------------------------------------------------------------------|
A|-----------------------------------------------------------------------------|
E|-----------------------------------------------------------------------------|
[ Tab from: http://www.guitaretab.com/x/x-japan/176635.html ]
Mahoose #1
e|--------------repeat 2x--------------|------------|-------------------------|
B|-------------------------------------|------------|-------------------------|
G|--------5\7-------9/7-------5\7--5/4-|-5-5-4-5-4-2|------5-4-5-4-5-\--------|
D|--------5\7-------9/7-------5\7--5/4-|-5-5-4-5-4-2|------5-5-5-5-5-\--------|
A|--0-0-0-----0-0-0-----0-0-0----------|------------|-------------------------|
E|-------------------------------------|------------|-------------------------|

Mahoose #2
e|-------------------|-------------------|-----------|-----------------------|
B|----repeat 2 times-|-------------------|-----------|-----------------------|
G|-------------------|-------------------|-----------|-----------------------|
D|2-2--2222--2-2-2222|-5-5--5555-5-5-5555|5-5-7-5-5-3|2-2-2222-2-2-2222------|
A|0-0--0000--0-0-0000|-3-3--3333-3-3-3333|3-3-5-3-3-1|0-0-0000-0-0-0000------|
E|-------------------|-------------------|-----------|-----------------------|
   END OF M#2
e|--------------|--------------------|------|--------------------------------|
B|--------------|--------------------|------|--------------------------------|
G|--------------|--------------------|------|--------------------------------|
D|----5-7-5-----|---REPEAT MAHOOSE#2-|------|--REPEAT-MAHOOSE-#1-------------|
A|--8-------5-6-|--------------------|--5-6-|--------------------------------|
E|----------3-4-|--------------------|--3-4-|--------------------------------|

e|-----------------------------------------------------------------------------|
B|-----------------------------------------------------------------------------|
G|-----------------------------------------------------------------------------|
D|-REPEAT TOP 2 THINGS---------------------------------------------------------|
A|-----------------------------------------------------------------------------|
E|-----------------------------------------------------------------------------|

| /  slide up
| \  slide down
| h  hammer-on
| p  pull-off
| ~  vibrato
| +  harmonic
| x  Mute note
===============================================================================
Related for Silent Jealousy tab