Song name
# A B C D E F G H I J K L M N O P Q R S T U V W X Y Z

X Japan - Tears tab

Artist:	X Japan
Album:	Dahlia
Song:	Tears

Tuning: Standard

b = bend
r = release
v = vibrato
h = hammer on
p = pull off
/ = slide up
\ = slide down

3:45 Solo

e--13b15--13b15r13-13-12v-------12-15-------------------------------15-------------------|
b-------------------------13-15-------15b17--15b17r15--15-13-15-12v----12v-----12-12\10v-|
g--------------------------------------------------------------------------/12-----------|
D----------------------------------------------------------------------------------------|
A----------------------------------------------------------------------------------------|
E----------------------------------------------------------------------------------------|

e-----5/7-8-7h8p7-5---------5---------------|
b--\5---------------8-5-6-----8-------------|
g--------------------------------/4-5-7-7-5-|
D-------------------------------------------|
A-------------------------------------------|
E-------------------------------------------|

e----------------------------------------------------------------------12-|
b--5-5-5-6-8-5/9v--9-10-12----/13v--13b15--13b15-13-12----12--12-13-15----|
g---------------------------9--------------------------14-----------------|
D-------------------------------------------------------------------------|
A-------------------------------------------------------------------------|
E-------------------------------------------------------------------------|

e-------------------------------------7-8-7h8p7------10b12r10--7-10-8-7---7-7----|
b--------12-13-12-13-15-15-13v-----10-----------10-8--------------------8-----10-|
g-----13------------------------/9-----------------------------------------------|
D--14----------------------------------------------------------------------------|
A--------------------------------------------------------------------------------|
E--------------------------------------------------------------------------------|

e-----------------12----------------------------------|
b--------12-13-15----13-15v--/15-13-12v--13-15--15-13-|
g-----14----------------------------------------------|
D--15-------------------------------------------------|
A-----------------------------------------------------|
E-----------------------------------------------------|

e-----------------------------------12-12-13-15b16v--15b16-|
b--------12-13v-13-12-13-15-15b17v-------------------------|
g-----14---------------------------------------------------|
D--14------------------------------------------------------|
A----------------------------------------------------------|
E----------------------------------------------------------|

e--12-14-16-17-13-13-13-13-15-17--17-13-15-17/20-17-19-20-20b22-20-19-20--22b24-22--22b24-22b24-|
b-----------------------------------------------------------------------------------------------|
g-----------------------------------------------------------------------------------------------|
D-----------------------------------------------------------------------------------------------|
A-----------------------------------------------------------------------------------------------|
E-----------------------------------------------------------------------------------------------|

Tabbed by Mad-Season, 4th November 2010
Email: h22a.vtec@gmail.com
Tap to rate this tab
 
# A B C D E F G H I J K L M N O P Q R S T U V W X Y Z