Guitaretab - guitar tabs
Song name
# A B C D E F G H I J K L M N O P Q R S T U V W X Y Z

X Japan - Rusty Nail Live tab

Tittle:Rusty Nail 1997 Last Live Solo
Artist:X-Japan
Ablum:The Last Live
Tabbed By:--S--

Solo is Around 3.46 in the last live version
But in the Recording Version is around 3.41 

This Whole Part Play Extremely Fast
E|---------------------------------------------------------------6-4-|
B|---------------------------------------------------------5-6-8-----|
G|-----------------------------------------5-----5-7---5-7-----------|
D|-----------------5-----5-7---5-7---5-7-8---7-8-----8---------------|
A|-----5-7-8-5-7-8---7-8-----8-----8---------------------------------|
E|-6-8---------------------------------------------------------------|

Slow Down Abit Now
E|-------------------------------------------------------------------|
B|------9-11--13-9b11--9r-8-9-8h9p8------------8-------8-------------|
G|----8-----------------------------10--8-11b----11-10-----------8-8-|
D|-10----------------------------------------------------10-8-10-----|
A|-------------------------------------------------------------------|
E|-------------------------------------------------------------------|

E|-------------------------------------------------------------------------|
B|-8-x-x-x--x-x-x--8-x-6--8-11---------------------------------------------|
G|-8-x-x-x--x-x-x--8-x-5--7-10-----11b--10-8-10-8-7-8-7----11b--10-8-10--8-|
D|------------------------------10----------------------10-----------------|
A|-------------------------------------------------------------------------|
E|-------------------------------------------------------------------------|
[ Tab from: http://www.guitaretab.com/x/x-japan/81702.html ]
E|--------18-----------------------------------------------18----------|
B|-16b18-----16b18-18-16br18-18p16-18-16-15-16-15----15-16-------15-16-|
G|------------------------------------------------17----------17-------|
D|---------------------------------------------------------------------|
A|---------------------------------------------------------------------|
E|---------------------------------------------------------------------|

Fast Alternate Picking
E|-18181818----------------------------------------------------------------|
B|----------16161616-18181818-15151515-16161616----------15151515-16161616-|
G|----------------------------------------------17171717-------------------|
D|-------------------------------------------------------------------------|
A|-------------------------------------------------------------------------|
E|-------------------------------------------------------------------------|

E|-------------------15b18-15r-----------------------------------------------------|
B|-16b18-16r-18--16------------18--------------------------------------------------|
G|--------------------------------17-17-17-17-19-19-19-19-21-21-21-19-19-19-17--16-|
D|--------------------------------17-17-17-17-17-17-17-17-17-17-17-17-17-17-17--17-|
A|---------------------------------------------------------------------------------|
E|---------------------------------------------------------------------------------|
                                  ^^^^^^^^^^^^^^^^^^^^^^^^^^^^^^^^^^^^^^^^^^^^^^^^
                                         Use A Wah Wah Pedal For This Part
This Whole Part Play It Fast
E|----------------------------------------------12-------12------------------13b15-|
B|-------10-13p10-------10-13p10-------13-13b15----13b15----13br15p13-15--13-------|
G|-10b12----------10b12----------10b12---------------------------------------------|
D|---------------------------------------------------------------------------------|
A|---------------------------------------------------------------------------------|
E|---------------------------------------------------------------------------------|
Related for Rusty Nail Live tab
Advertisement will be closed in 10 seconds