Song name
# A B C D E F G H I J K L M N O P Q R S T U V W X Y Z

X-press - Anti-violence tab

Song: Anti-Violence
Artist: X-Press

www.x-press.be
www.myspace.com/xpresspunkrock

Intro
E-------------------------------------|
B-------------------------------------|
G--4~-------7~-------4~---------------|
D--4~-4-2-4-7~-7-5-4-4~-4-2-4-5~-7~---|
A--2~-------5~-------2~-------5~-7~---|
E-----------------------------3~-5~---|

Verse
E---------------------------------------------------------------|
B---------------------------------------------------------------|
G--4-444444-------7-777777-------4-444444-----------------------|
D--4-444444-4-2-4-7-777777-7-5-4-4-444444-4-2-4-5--5-5-7--7-7---|
A--2-222222-------5-555555-------2-222222-------5--5-5-7--7-7---|
E-----------------------------------------------3--3-3-5--5-5---|
     xxxxxx         xxxxxx         xxxxxx

Chorus
E---------------------------------------------------------------|
B---------------------------------------------------------------|
G--4-4-4-4-4--4-4--7-7-7-7-7--7-7--4-4-4-4-4--4-4---------------|
D--4-4-4-4-4--4-4--7-7-7-7-7--7-7--4-4-4-4-4--4-4-5-5-5-7-7-7---|
A--2-2-2-2-2--2-2--5-5-5-5-5--5-5--2-2-2-2-2--2-2-5-5-5-7-7-7---|
E-------------------------------------------------3-3-3-5-5-5---|

Intro
Verse x2
Chorus x2
Verse x2
Chorus x2
Verse
Intro
Verse x2
let ring

-------------
x = palm mute
Tap to rate this tab
# A B C D E F G H I J K L M N O P Q R S T U V W X Y Z