Song name
# A B C D E F G H I J K L M N O P Q R S T U V W X Y Z

X-ray Spex - Artificial tab

-------------------------------------------------------------------------------
			     SONG NAME  Artificial - Band Name X-ray Spex
-------------------------------------------------------------------------------
Tabbed by:Spacebandit
Email:  Spacebandit@btinternet.com

Tuning:

e|---------------------------------------------------------------------------|
B|---------------------------------------------------------------------------|
G|---------------------------------------------------------------------------|
D|---------------------------------------------------------------------------|
A|---------------------7----5------------------------------------------------|
E|----5---5---8---5-------------8-----5-------------------------------------|

e|---------------------------------------------------------------------------|
B|---------------------------------------------------------------------------|
G|---------------------------------------------------------------------------|
D|---------------------------------------------------------------------------|
A|-------------------7------5------------------------------------------------|
E|--5----8----5------------------8------5------------------------------------|

e|---------------------------------------------------------------------------|
B|---------------------------------------------------------------------------|
G|---------------------------------------------------------------------------|
D|---------------------------------------------------------------------------|
A|----------------------------7-----5----------------------------------------|
E|---5-----5-----8------5-----------------8------5---------------------------|

e|---------------------------------------------------------------------------|
B|---------------------------------------------------------------------------|
G|---------------------------------------------------------------------------|
D|---------------------------------------------------------------------------|
A|---------------------------------------------------------------------------|
E|---3---3----3-----3---3----3----3---3--------------------------------------|



************************************

| /   slide up
| \   slide down
| h   hammer-on
| p   pull-off
| ~   vibrato
| +   harmonic
| x   Mute note
| b   Bend
| pb  Pre-bend
| br  Bend release
| pbr Pre-bend release
| brb Bend release bend

************************************
Tap to rate this tab
 
# A B C D E F G H I J K L M N O P Q R S T U V W X Y Z