Song name
# A B C D E F G H I J K L M N O P Q R S T U V W X Y Z

X-ray Spex - I Am A Cliche tab

the intro kinda part

 e|---------------------------|
 b|---------------------------|
 g|---------------------------|
 d|--7--5---------------------|
 a|--5--3---7--5--7--7--7--7--|
 E|---------5--3--5--5--5--5--|

play that four times

 e|---------------|
 b|---------------|
 g|---------------|
 d|---------------|
 a|--7--5--7--5---|
 E|--5--3--5--3---|

"i am a cliche..."

 e|--------------|
 b|--------------|
 g|--------------|
 d|--7--7--7--7--|
 a|--5--5--5--5--|
 E|--------------|

"i am a cliche, you know what i mean..."

 e|---------------------------|
 b|---------------------------|
 g|---------------------------|
 d|--7--5---------------------|
 a|--5--3---7--5--7--7--7--7--|
 E|---------5--3--5--5--5--5--| play that just once


 e|---------------------------|
 b|---------------------------|
 g|---------------------------|
 d|--7--7--7--7--5--5--5--5---|
 a|--5--5--5--5--3--3--3--3---|
 E|--------------3--3--3--3---|

"yabba yabba yabba, yabba yabba yabba"

 e|---------------|
 b|---------------|
 g|---------------|
 d|---------------|
 a|--7--5--7--5---|
 E|--5--3--5--3---|

"boredom, boredom"


pretty much the whole song. if only i could tab out the trumpet... i would be KING!

well, here's the chords (only for the lyrics part) in case you've never heard the song 
want to play for the hell of it

i'm a cliche
A     G
i'm a cliche
A     G
i'm a cliche
A     G
i'm a cliche
A     G
i'm a cliche
A     G
you've seen before
A           G
i'm a cliche
A     G
i live next door
A      G
i'm a cliche
D
you know what i mean
D
i'm a cliche
A     G
pink is obscene
A       G

yamma yamma yamma!
D     D     D
yamma yamma yamma!
C     C     C
Boredom! Boredom!
A   G    A   G


not too bad at all. have fun with that.
Tap to rate this tab
# A B C D E F G H I J K L M N O P Q R S T U V W X Y Z