Song name
# A B C D E F G H I J K L M N O P Q R S T U V W X Y Z

X-ray Spex - Warroir In Woolworths tab


Main Riff:
e|------------------------------------------|
B|------------------------------------------|
G|------------------------------------------|
D|------------------------------2b3b2-------|
A|--0--2--5---0--2--5--0--2--5---------5----|
E|------------------------------------------|

Verse:
e|---------------|
B|---------------|
G|--7--7---------|
D|--7--7--5--7---|
A|--5--5--5--7---|
E|--------3--5---|
play each multiple times and listen for timing

Chorus:
e|--------------------------|
B|--------------------------|
G|--7--5--7--5--7--7-5-6-7--|
D|--7--5--7--5--5-----------|
A|--5--3--5--3--5-----------|
E|--------------------------|

Tap to rate this tab
# A B C D E F G H I J K L M N O P Q R S T U V W X Y Z