Song name
# A B C D E F G H I J K L M N O P Q R S T U V W X Y Z

X - Year 1 tab

   if you know the song you'll know where everything goes                            

                                 "Year 1" by X


|---------------------------------------------------------|
|---------------------------------------------------------|
|--------------------4/5-5--4/5-5-5-5--6/7-7--6/7-7-7-7-7-|
|--4/5-5--4/5-5-5-5--4/5-5--4/5-5-5-5--6/7-7--6/7-7-7-7-7-|
|--4/5-5--4/5-5-5-5--2/3-3--2/3-3-3-3--4/5-5--4/5-5-5-5-5-|
|--2/3-3--2/3-3-3-3---------------------------------------|


"year one little babies......."

|---------------------------------------------------------------------|
|---------------------------------------------------------------------|
|---------------------------------------------------------------------|
|------------------------------------4/5-5-5-7-5-5-5--4/5-5-5-7-5-5-5-|
|--4/5-5-5-7-5-5-5--4/5-5-5-7-5-5-5--2/3-3-3-3-3-3-3--2/3-3-3-3-3-3-3-|
|--2/3-3-3-3-3-3-3--2/3-3-3-3-3-3-3-----------------------------------|



|--------------------------3----------------------------------3-----------|
|-------3-3--5-5--3-3------3--------------3-3--5-5--3-3-------3-----------|
|---5-5----------------5-5------------5-5----------------5-5--------------|
|------------------------------7--7---------------------------------------|
|------------------------------5--5------------------------------3--7-7---|
|----------------------------------------------------------------5--5-5---|




"year one, year one, i'm one!"

-bertman


Tap to rate this tab
# A B C D E F G H I J K L M N O P Q R S T U V W X Y Z