Guitaretab - guitar tabs
Song name
# A B C D E F G H I J K L M N O P Q R S T U V W X Y Z

X - Real Child Of Hell tab

standard tuning


              "REAL CHILD OF HELL" by -X-

|---------------------------------------------------|
|---------------------------------------------------|
|---------------------------------------------------|
|---9--7--5---------9--7--5---------9--7--5---------|
|---7--5--3--7--7-7-7--5--3--7--7-7-7--5--3--7--7-7-|
|------------5--5-5----------5--5-5----------5--5-5-|


|----------------------------------------------|
|----------------------------------------------|
|----------------------------------------------|
|---5---------------5---------------5----------|
|---3--5--2--7~~7-7-3--5--2--7~~7-7-3--5--2~~~-|
|------3--0--5~~5-5----3--0--5~~5-5----3--0~~~-|

--men-of-flesh-hitch-a-ride---shorts-and-tans-and-greasy-thighs
|------------------------------|---------------------------|
|------------------------------|---------------------------|
|------------------------------|---------------------------|
|---9-9-9-9--12--7--7-7-7-7-7--|-9-9-9-9--12--7--7-7-7-7-7-|
|---7-7-7-7--10--5--5-5-5-5-5--|-7-7-7-7--10--5--5-5-5-5-5-|
|------------------------------|---------------------------|

--at night drive into slimy bars---and piss it out on our front yards
|------------------------------|---------------------------|
|------------------------------|---------------------------|
|------------------------------|---------------------------|
|---9-9-9-9--12--7--7-7-7-7-7--|-9-9-9-9--12--7--7-7-7-7-7-|
|---7-7-7-7--10--5--5-5-5-5-5--|-7-7-7-7--10--5--5-5-5-5-5-|
|------------------------------|---------------------------|

--they're looking in our window now!!
|------------------------------|
|------------------------------|
|------------------------------|
|---9-9-9-9--12--7--7-7-7-7-7--|
|---7-7-7-7--10--5--5-5-5-5-5--|
|------------------------------|
[ Tab from: http://www.guitaretab.com/x/x/177055.html ]
--real child of hell nobody's seen him----------realchildofhell!-realchildofhell!
|--------------------------------------------|-------------------------|
|--------------------------------------------|-------------------------|
|--------------------------------------------|-------------------------|
|------------7--7--7---/10-10--10--10--10-10-|-------7-7-7-------7-7-7-|
|---7--7--7--5--5--5---/8--/8--/8--/8--/8--8-|-7-7-7-5-5-5-7-7-7-5-5-5-|
|---5--5--5----------------------------------|-5-5-5-------5-5-5-------|

------------------nobody knows what shape she takes
|----------1--------|-------------------------------------|
|------------1----1-|-------------------------------------|
|--------2------2---|-------------------------------------|
|-------3-----------|-------------------------------------|
|-----3-------------|-7-----------7-----------7-----------|
|---1---------------|-5--5-5-5-5--5--5-5-5-5--5--5-5-5-5--|

|---------------------------|
|---------------------------|
|---------------------------|
|--10-10-10-10-10-10-10-10--|
|---8--8--8--8--8--8--8--8--|
|---------------------------|

|---------------------------------------------------|
|---------------------------------------------------|
|---------------------------------------------------|
|---9--7--5---------9--7--5---------9--7--5---------|
|---7--5--3--7--7-7-7--5--3--7--7-7-7--5--3--7--7-7-|
|------------5--5-5----------5--5-5----------5--5-5-|

|----------------------------------------------|
|----------------------------------------------|
|----------------------------------------------|
|---5---------------5---------------5----------|
|---3--5--2--7~~7-7-3--5--2--7~~7-7-3--5--2~~~-|
|------3--0--5~~5-5----3--0--5~~5-5----3--0~~~-|

and thats all! do this stuff with the other verses and youre done!

-Bert
Related for Real Child Of Hell tab
×
Best way to learn
"Real Child Of Hell"