Song name
# A B C D E F G H I J K L M N O P Q R S T U V W X Y Z

X - Los Angeles tab

Help us improve GuitareTab! Take a short survey!
Artist: X
Song: Los Angeles
Album: Los Angeles
Tabbed by Johnny Kennedy

This song is easy enough, but I might have the order off a little bit. You should have 
problem figuring it out.

Intro
e-------------|
B-------------|
G-------------|
D-9-5-7-------|
A-7-3-5-5-7---|
E-------3-5---|

Verse
e-------------|
B-------------|
G-------------|
D-----5-------|
A-7-5-3-------|
E-5-3---------|

Chorus
e-------------|
B-------------|
G-------------|
D----33-------|
A-44----3-0---|
E-------------|
She gets confused...

e-------------|
B-------------|
G-------------|
D-9-7---------|
A-7-5---------|
E-------------|
Her hands turn red...


Intro (x2)
Verse (x10)
Chorus
Intro
Verse (x10)
Chorus
Related for Los Angeles tab