Song name
# A B C D E F G H I J K L M N O P Q R S T U V W X Y Z

X - Los Angeles tab

Los Angeles
X
jjjddd

standard tuning

e|-------------------------------------|
B|-------------------------------------|
G|-------------------------------------|
D|-9-5-7-------------------------------|
A|-7-3-5-5-7-7-7-7-7-7-7-7-7-7-7-7-7-7-|
E|-------3-5-5-5-5-5-5-5-5-5-5-5-5-5-5-|
             * * * * * * * * * * * * *

e|-------------------------|
B|-------------------------|
G|-------------------------|
D|-9-5-7-------------------|
A|-7-3-5-5-7---------7-9-7-|
E|-------3-5-x32--/9-------|
           *
release palm mute near the end


e|----------------------------------------------|
B|----------------------------------------------|
G|----------------------------------------------|
D|-------------------77777777-5-5-5-5-5-5-5-----|
A|-77777777-55555555-55555555-3-3-3-3-3-3-3-----|
E|-55555555-33333333------------------------13\-|
   ******** ******** 
e|--------------------------------------|
B|--------------------------------------|
G|--------------------------------------|
D|-------------------77777777-5-5-5-----|
A|-77777777-55555555-55555555-3-3-3-----|
E|-55555555-33333333----------------13\-|
   ******** ******** 

e|------------------------------|
B|------------------------------|
G|------------------------------|
D|--------------------55555555--| this repeats several times and ends on an A5
A|-77777777-555555555-33333333--|
E|-55555555-333333333-----------|


e|------------------------------------|
B|------------------------------------|
G|------------------------------------|
D|--------------77777777-99999999-----|
A|-10108-108----55555555-77777777-x5--|
E|-8-8-6-8-6-x3-----------------------|
                ******** ********

e|-------------------------|
B|-------------------------|
G|-------------------------|
D|-9-5-7-------------------|
A|-7-3-5-5-7---------7-9-7-|
E|-------3-5-x28--/9-------|
           *

e|----------------------------------------------|
B|----------------------------------------------|
G|----------------------------------------------|
D|-------------------77777777-5-5-5-5-5-5-5-----|
A|-77777777-55555555-55555555-3-3-3-3-3-3-3-----|
E|-55555555-33333333------------------------13\-|
   ******** ******** 
e|--------------------------------------|
B|--------------------------------------|
G|--------------------------------------|
D|-------------------77777777-5-5-5-----|
A|-77777777-55555555-55555555-3-3-3-----|
E|-55555555-33333333----------------13\-|
   ******** ******** 


e|------------------------------|
B|------------------------------|
G|------------------------------|
D|--------------------55555555--| this repeats several times and ends on an A5
A|-77777777-555555555-33333333--|
E|-55555555-333333333-----------|


e|------------------------------------|
B|------------------------------------|
G|------------------------------------|
D|--------------77777777-99999999-----|
A|-10108-108----55555555-77777777-x7--|
E|-8-8-6-8-6-x3-----------------------|
                ******** ********
let off on the palm mute in the last few repeats


e|--------------------|
B|--------------------|
G|---------6~~~~~~~~--|
D|-9-5-7--------------|
A|-7-3-5-5-7~~~~~~~~--|
E|-------3-5~~~~~~~~--|
Tap to rate this tab
# A B C D E F G H I J K L M N O P Q R S T U V W X Y Z