Song name
# A B C D E F G H I J K L M N O P Q R S T U V W X Y Z

Xaab And Txiab - Tij Laug Xab Hmong Songs tab

Hey hmong people this is a hmong song that i tabbed, here is the youtube link
http://www.youtube.com/watch?v=BcTcS5T-x-Q 
BY: Teebman
Standard tuning 

E----|---|--------------|--------------------------------------------------|
B----|---|--------------|--------------------------------------------------|
G---9|--9|--9--12--16--9|-9-12-14-16-14-12----------12---------------------|
D----|9--|9-------------|------------------14--12------14--14--14----------|
A----|---|--------------|-------------------------14-----------------------|
E----|---|--------------|--------------------------------------------------|
    And then all the hmong instruments come in..
E--------------------------------------------------------------------------|
B--------------------------------------------------------------------------|
G--9-12-14-16-14-12----------12--------------------------------------------|
D-------------------14--12------14--14--14---------------------------------|
A--------------------------14----------------------------------------------|
E--------------------------------------------------------------------------|

Sorry i havent learned the full intro yet..
Tap to rate this tab
# A B C D E F G H I J K L M N O P Q R S T U V W X Y Z