Song name
# A B C D E F G H I J K L M N O P Q R S T U V W X Y Z

Xander De Buisonje - Spanky tab

E--------------------|
B--------------------|
G--------------------|
D-66666666-222-44444-|
A-44444444-000-22222-|
E--------------------|

E--------------------|
B--------------------|
G--------------------|
D-66666666-222-------|
A-44444444-000-44444-|
E--------------22222-|

E--------------------|
B--------------------|
G--------------------|
D-66666666-222-44444-|
A-44444444-000-22222-|   Play everything above this line twice
E--------------------|<-- but the first time after this play A
                                  then go to B second time


E--------------------|\-- /
B------------------------ / \
G------------------------ /  \___ A
D-99999999-77777777--| -- /
A-77777777-55555555--|--- /
E------------------------ /
               XXXX


E---------------------|\-- /
B------------------------- / \
G------------------------- /  \___ B
D-99999999-7777-------| -- /
A-77777777-5555-2222--|--- /
E---------------0000------ /
                XXXX
_________________________________________________

E------------------------------|
B------------------------------|
G------------------------------|    X 3
D------------------------------|
A-2-----5/4---2----5---5/4-----|
E-0-000-3/2-0-0-00-3-0-3/2-00--|
    xxx     x   xx   x     xx

E-----------------------|
B-----------------------|   play this section twice
G-----------------------|
D-----------------------|
A-2-----5/4---2-----2-2-|
E-0-000-3/2-0-0-000-0-0-|
    xxx     x   xxx x x

___________________________________________________

E------------------------------------------|
B------------------------------------------|
G------------------------------------------|
D-----5-4~------------------7-5~-----------|
A-2~--3-2~--------------2~--5-3~-----------|
E-0~-0-----(3-2-3-2-0~)-0~-0-----(5-3-5-3)-|
     x                     x

E--------------------------------|
B--------------------------------|
G--------------------------------|
D-5\4~-2~------12X~~~~~~~~~~~~~--|
A-3\2~-0~-4~---12X~~Pickslide~~--|
E---------2~---12X~~~~~~~~~~~~~--|

E----------------------|
B----------------------|
G----------------------|
D--------5~---------4~-|
A-2------3~--2------2~-|
E-0-0--------0-0-------|
    x

E--------------------------------|
B--------------------------------|
G--------------------------------|
D------5555-------4444------2222-|
A-2----3333--2----2222-2----0000-|
E-0-00-------0-00------0-00------|
    xx         xx        xx

E-----------------|
B-----------------|
G-----------------|
D-----------------|
A-5\4---5\4---5\4-|
E-3\2-0-3\2-0-3\2-| This is the end to the recorded version
      x     x          but we're working on more
_____________________________________________

 switch toclean

E-----------------------|
B-----------------------|
G-----------------------|
D----4-5-4~--7-5-4-5-4~-|
A--2--------------------|
E-0---------------------|

E-----------------------|
B-----------------------|
G-----------------------|
D----4-5-4~--2-00-------|
A--2--------------4b-0--|
E-0---------------------|    play clean part twice

now distorted again

E----------------------------------------|
B----------------------------------------|
G----------------------------------------|
D---4-5-4~-7-5-4h5p4h5p4---4-5-4-2-0--0--|
A-2-----------------------2---------4----|
E----------------------------------------|


E--------------------------------------|
B--------------------------------------|
G--------------------------------------|
D---4-5-4-7-5-4h5p4h5p4---4-5-4-7-5-4~-|
A-2---------------------2--------------|
E--------------------------------------|  X2

E------------------------------|
B------------------------------|
G------------------------------|
D-2-0-----4~-2~----------------|
A-----4-0-2~-0~-4~-5~----------|
E---------------2~-3~-333333---|
                      xxxxxx


E---------------------|
B---------------------|
G---------------------|
D-4~-2~---------------|
A-2~-0~-4~-7~---------|
E-------2~-5~-555555--|
              xxxxxx
Tap to rate this tab
# A B C D E F G H I J K L M N O P Q R S T U V W X Y Z