Song name
# A B C D E F G H I J K L M N O P Q R S T U V W X Y Z

Xandria - Vampire tab

---------------------------------------------------------------------------
Song: Vampire
Band: Xandria
Album: Salomé - The Seventh Veil
Tabbed by: TrollFaceJesus
E-mail: trollfacejesus@gmail.com


Hey everyone, this is my tab for this song, and I think it all looks pretty
good. All of the rhythm parts in the song are here, and the only thing that
I didn't tab out were the solos. Hopefully everything here is accurate, and
that you guys like my tab! If you have any questions, corrections, or
comments, please feel free to post them here, or to send me an email! :D


Tuning: D


Riff 1a
|-------------------------------|
|-------------------------------|
|-------------------------------| x1
|--2-----4-4-----5--5-----5--7--|
|--2-----4-4-----5--5-----5--7--|
|--0--0--2-2--0--3--3--0--3--5--|
      ˇ       ˇ        ˇ

Riff 1b
|----------------------------------|
|----------------------------------|
|----------------------------------| x1
|--2-----4-4-----5--5-----7\5-7/9--|
|--2-----4-4-----5--5-----7\5-7/9--|
|--0--0--2-2--0--3--3--0--5\3-5/7--|
      ˇ       ˇ        ˇ

Riff 1a x 1

Riff 1b x 1


Riff 2
|----------------------------------------------------|
|----------------------------------------------------|
|----------------------------------------------------| x2
|--2--1---1-----------------2---2-2--2--2--2-2-------|
|-------3----2--1---1-------2---2-2--2--2--2-2-------|
|-----------------3---3-2---0---0-0--0--0--0-0--0-0--|
                                                ˇ ˇ

Riff 3
|----------------------------------------------------|
|----------------------------------------------------|
|---------------3--4-3------5---5-5--5--5--5-5-------| x1
|--5--4---4--5---------5----5---5-5--5--5--5-5-------|
|-------6-------------------3---3-3--3--3--3-3--3-3--|
|----------------------------------------------------|
                                                ˇ ˇ

Riff 2 x 1 


Riff 4
|-------------------------------------|
|-------------------------------------|
|--5----7----9------------------------| x1
|--5----7----9----0h2--2/4--4/5--5/7--|
|--3----5----7------------------------|
|-------------------------------------|


Riff 5
|--------------------|
|--------------------|
|--5----7----4----4--| x1
|--5----7----4----4--|
|--3----5----2----2--|
|--------------------|


Riff 1a x 1

Riff 1b x 1

Riff 1a x 1

Riff 1b x 1

Riff 2 x 2

Riff 3 x 1

Riff 2 x 1

Riff 4 x 1

Riff 5 x 1

Riff 1a x 1

Riff 1b x 1

Riff 1a x 1

Riff 1b x 1


Riff 6a
|------------------------------------------|
|------------------------------------------|
|--5---4-2---------7----5---4-2---------4--| x1
|--5---4-2----5----7----5---4-2----5----4--|
|--3---2-0----5----5----3---2-0----5----2--|
|-------------3--------------------3-------|


Riff 6b
|--------------------------------|
|--------------------------------|
|--5---4-2---------7----5---4-2--| x1
|--5---4-2----5----7----5---4-2--|
|--3---2-0----5----5----3---2-0--|
|-------------3------------------|


Riff 7a
|-------------------------------------------------------------|
|-------------------------------------------------------------|
|-------------------------------------------------------------| x1
|---------2----------------------------2----------------------|
|---------2---/8--7-7\5-5/7-7----------2---/8--7-7\5-5/10-10--|
|--0-0-0--0---------------------0-0-0--0----------------------|
   ˇ ˇ ˇ                        ˇ ˇ ˇ

Riff 7b
|--------------------------------------------------------|
|--------------------------------------------------------|
|--------------------------------------------------------| x1
|---------2----------------------------2-----------------|
|---------2---/8--7-7\5-5/7-7----------2----/5--3-3\2-2--|
|--0-0-0--0---------------------0-0-0--0-----------------|
   ˇ ˇ ˇ                        ˇ ˇ ˇ

Riff 8
|---------------------------------------------------------|
|---------------------------------------------------------|
|---------------------------------------------------------| x4
|---------2----2--2--2-----2----------2----3--3--3-----3--|
|---------2----2--2--2-----2----------2----3--3--3-----3--|
|--0-0-0--0--0-0--0--0-0-0-0---0-0-0--0--0-1--1--1-1-1-1--|
   ˇ ˇ ˇ     ˇ         ˇ ˇ     ˇ ˇ ˇ     ˇ         ˇ ˇ

Riff 9
|------------------------------------------------------|
|------------------------------------------------------|
|------------------------------------------------------| x1
|--2--1---1-----------------2-2--2-2--2-2--------------|
|-------3----2--1---1-------2-2--2-2--2-2--------------|
|-----------------3---3-2---0-0--0-0--0-0--0000000000--|
                                           ˇˇˇˇˇˇˇˇˇˇ

Riff 4 x 1

Riff 5 x 1

Riff 1a x 1

Riff 1b x 1

Riff 1a x 1

Riff 1b x 1


|-----|
|-----|
|-----| Song ends on D.
|--2--|
|--2--|
|--0--|


And that's pretty much it! :D


************************************

| /   slide up
| \   slide down
| h   hammer-on
| p   pull-off
| v   vibrato
| +   harmonic
| ˇ   Mute note
| b   Bend
| pb  Pre-bend
| br  Bend release
| pbr Pre-bend release
| brb Bend release bend

************************************
Tap to rate this tab
 
# A B C D E F G H I J K L M N O P Q R S T U V W X Y Z