Song name
# A B C D E F G H I J K L M N O P Q R S T U V W X Y Z

Xasthur - Funeral Of Being tab

The Funeral of Being

Xasthur

Straight 16th notes throughout @ 50bpm

Tuning: C# Standard (1 1/2 step down) on the version from the split with Angra Mainyu,
D tuning on the original demo version as well as from when he played it in the
documentary One Man Metal

Let Ring Throughout


       S S S S S S S S S S S S S S S S    S S S S S S S S S S S S S S S S  4x
C#||---------------------------5-------|-----------------------------------||
G#||---0-------0-------5---------0-----|--0-------0-------0-------0--------||
E ||*----5-------5-------0---------0---|----5-------5-------7-------5-----*||
B ||*------7-------7-------7-----------|------6-------6-------6-------6---*||
F#||---7-----7-7-----7-7-----7-7-----7-|--8-----8-8-----8-8-----8-8-----8--||
C#||-----------------------------------|-----------------------------------||


   S S S S S S S S S S S S S S S S    S S S S S S S S S S S S S S S S
-----------------------------------|----------------------------------|
---4-------4-------0-------0-------|--4-------4-------0-------0-------|
*----0-------0-------3-------3-----|----0-------0-------3-------3-----|
*------6-------6-------6-------6---|------6-------6-------6-------6---|
---6-----6-6-----6-6-----6-6-----6-|--6-----6-6-----6-6-----6-6-----6-|
-----------------------------------|----------------------------------|


  S S S S S S S S S S S S S S S S    S S S S S S S S S S S S S S S S  3x
----------------------------------|-----------------------------------||
--7-------7-------8-------7-------|--7-------7-------8-------7--------||
----7-------7-------7-------7-----|----7-------7-------7-------7-----*||
------9-------9-------9-------9---|------9-------9-------9-------9---*||
--9-----9-9-----9-9-----9-9-----9-|--9-----9-9-----9-9-----9-9-----9--||
----------------------------------|-----------------------------------||


   S S S S S S S S S S S S S S S S    S S S S S S S S S S S S S S S S  8x
---------------------------5-------|-----------------------------------||
---0-------0-------5---------0-----|--0-------0-------0-------0--------||
*----5-------5-------0---------0---|----5-------5-------7-------5-----*||
*------7-------7-------7-----------|------6-------6-------6-------6---*||
---7-----7-7-----7-7-----7-7-----7-|--8-----8-8-----8-8-----8-8-----8--||
-----------------------------------|-----------------------------------||
Tap to rate this tab
# A B C D E F G H I J K L M N O P Q R S T U V W X Y Z