Song name
# A B C D E F G H I J K L M N O P Q R S T U V W X Y Z

Xasthur - Conjuration Of Terror tab

Help us improve GuitareTab! Take a short survey!
	CONJURATION OF TERROR - Xasthur


Tuning: Standard

1ST RIFF
(tremolo picking)
|--------------------------------------------------------------------|
|--------------------------------------------------------------------|
|--------------------------------------------------------------------|
|---6-----5----6----8----5-----4-------------------------------------|
|---8-----6----8----9----6-----6-------------------------------------|
|-------------------------------------------/5-----------------------|
|-------------------------------------------/7-----------------------|

2ND RIFF
(tremolo picking)
|--------------------------------------------------------------------|
|--------------------------------------------------------------------|
|-----4--------------------4-----------------------------------------|
|---------6----5----4------5-------6-------------------------6-------|
|--------------------------------------------8----7-----6----7-------|
|--------------------------------------------------------------------|


3RD RIFF
|-------------------------------------------------------------------|
|-------------------------------------------------------------------|
|-----8------7-----8----7-----6-----5----6----5---------------------|
|-----9------8-----8----8-----7-----6----6----6---------------------|
|-------------------------------------------------------------------|
|-------------------------------------------------------------------|


Riff 4

|-------------------------------------------------------|
|---------------4-------------6-------------------------|
|---------7---------7-----------------------------------|
|-----6------------------------------7------------------|
|-------------------------------------------------------|
|-------------------------------------------------------|


|------------------------------------------------------|
|-----5------------------------------------------------|
|----------7----------7-------------------------------=|
|---------------6--------------------------------------|
|------------------------------------------------------|
|------------------------------------------------------|

(cant make out what the second guitar plays)


Riff 5
(tremolo picking)
|------------------------------------------------|
|---3-----4-----3----3----4----3-----------------|
|---5-----5-----5----4----4----4-----------------|
|------------------------------------------------|
|------------------------------------------------|
|------------------------------------------------|

|------------------------------------------------|
|---6-----8-----7----5----6----5-----------------|
|---6-----6-----6----6----6----6-----------------|
|------------------------------------------------|
|------------------------------------------------|
|------------------------------------------------|
Related for Conjuration Of Terror tab