Guitaretab - guitar tabs
Song name
# A B C D E F G H I J K L M N O P Q R S T U V W X Y Z

Xavier Naidoo - Ich Kenne Nichts tab

hi,this is my first tab so dont be too hard please =)


E|---------2-------------2--4-------x---||
B|------3----3--------3-----------2-----||
G|---2-------------0------------2-------||
D|----------------------------2---------||
A|--------------------------0-----------||
E|---2-------------0--------------------||
[ Tab from: http://www.guitaretab.com/x/xavier-naidoo/93713.html ]
this riff goes through the english part of the song...


it may be better to strum the
E|-------x------||
B|------2-------||
G|-----2--------||
D|----2---------||
A|---0----------||
E|--------------||

part SLOW,so i put an "x" in there

im going to look for the rest now *g ( date :sunday 29th july ) i think im going to 
the next part of the song sun
Related for Ich Kenne Nichts tab