Song name
# A B C D E F G H I J K L M N O P Q R S T U V W X Y Z

Xavier Rudd - Let Me Be tab

This is almost 100% apart from solos and extra bits, but should give you the sound of 
song perfectly... but just incase, listen to the song to get the rhythem spot on

Verse:
e---------------|---------------|---------------|
B---------------|---------------|---------------|
G-----X------X--|---------------|---------------|
D-----X------X--|-----X------X--|-----X------X--|
A---5-X----5-X--|-----X------X--|-----X------X--|
E-----X------X--|---3-X----3-X--|---5-X----5-X--|
Repeat this alot...


Chorus:
e---------------------|----------------|----------------|
B---------------------|----------------|----------------|
G---------------------|-----X-------X--|----------------|
D-----------X------X--|-----X-------X--|-----X-------X--|
A-----------X------X--|---5-X-----5-X--|-----X-------X--|
E---5-5-6-7-X----7-X--|-----X-------X--|---3-X-----3-X--|


e-----------------------|----------------|----------------|
B-----------------------|----------------|----------------|
G-----------------------|-----X-------X--|----------------|
D-----X-------X------X--|-----X-------X--|-----X-------X--|
A-----X-------X------X--|---5-X-----5-X--|-----X-------X--|
E---3-X-5-6-7-X----7-X--|-----X-------X--|---3-X-----3-X--|


And thats the basics to the whole song!!
I know it may not be perfect, but it was written for a lap steel, but it works for me,

P.S This is probably the greatest song Ive ever heard
Tap to rate this tab
# A B C D E F G H I J K L M N O P Q R S T U V W X Y Z