Song name
# A B C D E F G H I J K L M N O P Q R S T U V W X Y Z

Xavier Rudd - Fortune Teller tab

Xavier Rudd  Fortune Teller (Eadgbe)

e-------------------------------------------------------------|
b-------------------------------------------------------------|
g-------------------------------------------------------------|
d--2-------4-h5-p4-p2------------------------5--5----0-h5-----|
a-----2-----------------2-p5/7----5----4-----5--5----0-h5-----|
e--0---0--------------0---------0---0-----0--3--3--0---(3)----|

e-------------------------------------------------------------|
b-------------------------------------------------------------|
g-------------------------------------------------------------|
d--2-------4-h5-p4-p2------------------------5--5----0-h5-----|
a-----2-----------------2-p5/7----2-h4-5-----5--5----0-h5-----|
e--0---0--------------0---------0---------0--3--3--0---(3)----|


Chorus

e-------------------------------------------------------------|
b-------------------------------------------------------------|
g--------------------------(3x)-------------------------------|
d--2--------4--5--------------------7---5-4-5-4-4-------------|
a-------2-(4)(5)---2---------------7--5--------2-------------|
e--0--0--0--0--0--0--3--3---------0---0-(0)------------------|
Tap to rate this tab
 
# A B C D E F G H I J K L M N O P Q R S T U V W X Y Z