Song name
# A B C D E F G H I J K L M N O P Q R S T U V W X Y Z

Xavier Rudd - Follow The Sun tab

-------------------------------------------------------------------------------
                                             FOLLOW THE SUN - Xavier Rudd
-------------------------------------------------------------------------------

Sorry that this looks really long and confusing but it's really not once you 
start playing it. It's mostly quite repetitive. If you need video help go to 
triple j's Like A Version of Xavier Rudd playing it (without birds): 
http://www.abc.net.au/triplej/live/lav/sessions/s3467272.htm

Tuning: DADGBd
Capo 5 - chords and tab relative to capo

Intro:

     Dsus2             D                Dsus2            D
d|-------2----2-----------4----4------------2---3-----------4---4------------|
B|-------3----3-----------3----3------------3---3-----------3---3------------|
G|-------2----2-----------2----2------------2---2-----------2---2------------|
D|---------------0----------------0----------------0----------------0--------|
A|---------------------------------------------------------------------------|
D|---0----------------0----------------0----------------0--------------------|

     Dsus2             D                Dsus2            D
d|-------2----2-----------4----4------------2---3-----------4---4------------|
B|-------3----3-----------3----3------------3---3-----------3---3------------|
G|-------2----2-----------2----2------------2---2-----------2---2------------|
D|---------------0----------------0----------------0----------------0--------|
A|---------------------------------------------------------------------------|
D|---0----------------0----------------0----------------0--------------------|

Harmonica part 1:

     Dsus2             D                Dsus2            D
d|-------2----2-----------4----4------------2---3-----------4---4------------|
B|-------3----3-----------3----3------------3---3-----------3---3------------|
G|-------2----2-----------2----2------------2---2-----------2---2------------|
D|---------------0----------------0----------------0----------------0--------|
A|---------------------------------------------------------------------------|
D|---0----------------0----------------0----------------0--------------------|

     Dsus2             D                Dsus2            D
d|-------2----2-----------4----4------------2---3-----------4---4------------|
B|-------3----3-----------3----3------------3---3-----------3---3------------|
G|-------2----2-----------2----2------------2---2-----------2---2------------|
D|---------------0----------------0----------------0---------------0---------|
A|---------------------------------------------------------------------------|
D|---0----------------0----------------0----------------0--------------------|

      G
d|-------0----0-----------0----0------------0---0-----------0---0------------|
B|-------0----0-----------0----0------------0---0-----------0---0------------|
G|-------0----0-----------0----0------------0---0-----------0---0------------|
D|---------------------------------------------------------------------------|
A|---------------------------------------------------------------------------|
D|---5-----------5----5-----------5----5-----------5----5-----------5--------|

     Dsus2             D                Dsus2            D
d|-------2----2-----------4----4------------2---3-----------4---4------------|
B|-------3----3-----------3----3------------3---3-----------3---3------------|
G|-------2----2-----------2----2------------2---2-----------2---2------------|
D|---------------0----------------0----------------0----------------0--------|
A|---------------------------------------------------------------------------|
D|---0----------------0----------------0----------------0--------------------|

     Em                               G
d|-------0----0-----------0----0------------0---0-----------0---0------------|
B|-------0----0-----------0----0------------0---0-----------0---0------------|
G|-------0----0-----------0----0------------0---0-----------0---0------------|
D|---------------------------------------------------------------------------|
A|---------------------------------------------------------------------------|
D|---2-----------2----2-----------2----5-----------5----5-----------5--------|

     Dsus2             D                Dsus2            D
d|-------2----2-----------4----4------------2---3-----------4---4------------|
B|-------3----3-----------3----3------------3---3-----------3---3------------|
G|-------2----2-----------2----2------------2---2-----------2---2------------|
D|---------------0----------------0----------------0----------------0--------|
A|---------------------------------------------------------------------------|
D|---0----------------0----------------0----------------0--------------------|

Verse:

     Dsus2             D                Dsus2            D
d|-------2----2-----------4----4------------2---3-----------4---4------------|
B|-------3----3-----------3----3------------3---3-----------3---3------------|
G|-------2----2-----------2----2------------2---2-----------2---2------------|
D|---------------0----------------0----------------0----------------0--------|
A|---------------------------------------------------------------------------|
D|---0----------------0----------------0----------------0--------------------|
  1.  Follow,                                            follow the
  2.  Breathe,                                           breathe in the

     Dsus2             D                Dsus2            D
d|-------2----2-----------4----4------------2---3-----------4---4------------|
B|-------3----3-----------3----3------------3---3-----------3---3------------|
G|-------2----2-----------2----2------------2---2-----------2---2------------|
D|---------------0----------------0----------------0---------------0---------|
A|---------------------------------------------------------------------------|
D|---0----------------0----------------0----------------0--------------------|
      sun,                                               which way the 
      air,                                               set your in-

     G
d|-------0----0-----------0----0------------0---0-----------0---0------------|
B|-------0----0-----------0----0------------0---0-----------0---0------------|
G|-------0----0-----------0----0------------0---0-----------0---0------------|
D|---------------------------------------------------------------------------|
A|---------------------------------------------------------------------------|
D|---5-----------5----5-----------5----5-----------5----5-----------5--------|
    wind blows,                                         when this day is
     tentions,                                            dream with

     Dsus2             D                Dsus2            D
d|-------2----2-----------4----4------------2---3-----------4---4------------|
B|-------3----3-----------3----3------------3---3-----------3---3------------|
G|-------2----2-----------2----2------------2---2-----------2---2------------|
D|---------------0----------------0----------------0----------------0--------|
A|---------------------------------------------------------------------------|
D|---0----------------0----------------0----------------0--------------------|
     done.
     care.

Prechorus 1:

     Em                               G
d|-------0----0-----------0----0------------0---0-----------0---0------------|
B|-------0----0-----------0----0------------0---0-----------0---0------------|
G|-------0----0-----------0----0------------0---0-----------0---0------------|
D|---------------------------------------------------------------------------|
A|---------------------------------------------------------------------------|
D|---2-----------2----2-----------2---5-----------5----5-----------5---------|
   1.              Tomorrow's a new  day for every-
   2.                Brand new       moon, brand new

     Dsus2             D                Dsus2            D
d|-------2----2-----------4----4------------2---3-----------4---4------------|
B|-------3----3-----------3----3------------3---3-----------3---3------------|
G|-------2----2-----------2----2------------2---2-----------2---2------------|
D|---------------0----------------0----------------0----------------0--------|
A|---------------------------------------------------------------------------|
D|---0----------------0----------------0----------------0--------------------|
     one,
     sun.

Harmonica part 1

Verse:

So follow, follow the sun,
the direction of the birds,
the direction of love.
Breath, breath in the air,
cherish this moment,
cherish this breath.

Prechorus 1

Bridge:

d|-------0----0-----------0----0------------2---2-----------2---2------------|
B|-------3----3-----------3----3------------3---3-----------3---3------------|
G|-------0----0-----------0----0------------2---2-----------2---2------------|
D|---------------------------------------------------------------------------|
A|---0-3----------3---2------------2----0-----------0------------------------|
D|------------------------------------------------------0------------0-------|
    When you feel life coming down on you,
    like a heavy wave.
    When you feel this crazy society,
    headin' to the strand.
    Take a stroll to the nearest waters edge;
    Remember your place.
    Many moons have risen and fallen long, 
    long before you came. So which way is the

Prechorus 2:

     G
d|-------0----0-----------0----0------------0---0-----------0---0------------|
B|-------0----0-----------0----0------------0---0-----------0---0------------|
G|-------0----0-----------0----0------------0---0-----------0---0------------|
D|---------------------------------------------------------------------------|
A|---------------------------------------------------------------------------|
D|---5-----------5----5-----------5---5-----------5----5-----------5---------|
     wind blowing,                                     what does your heart

     Dsus2             D                Dsus2            D
d|-------2----2-----------4----4------------2---3-----------4---4------------|
B|-------3----3-----------3----3------------3---3-----------3---3------------|
G|-------2----2-----------2----2------------2---2-----------2---2------------|
D|---------------0----------------0----------------0----------------0--------|
A|---------------------------------------------------------------------------|
D|---0----------------0----------------0----------------0--------------------|
     say?

Harmonica part 2:

     Em                               G
d|-------0----0-----------0----0------------0---0-----------0---0------------|
B|-------0----0-----------0----0------------0---0-----------0---0------------|
G|-------0----0-----------0----0------------0---0-----------0---0------------|
D|---------------------------------------------------------------------------|
A|---------------------------------------------------------------------------|
D|---2-----------2----2-----------2----5-----------5----5-----------5--------|

     Dsus2             D                Dsus2            D
d|-------2----2-----------4----4------------2---3-----------4---4------------|
B|-------3----3-----------3----3------------3---3-----------3---3------------|
G|-------2----2-----------2----2------------2---2-----------2---2------------|
D|---------------0----------------0----------------0----------------0--------|
A|---------------------------------------------------------------------------|
D|---0----------------0----------------0----------------0--------------------|

then Harmonica Part 1

Verse:

So follow, follow the sun,
and which way the wind blows
when this day is done.
Tap to rate this tab
# A B C D E F G H I J K L M N O P Q R S T U V W X Y Z