Song name
# A B C D E F G H I J K L M N O P Q R S T U V W X Y Z

Xes - Im Not Listening tab

Xzeon
I,m Not Listening

Intro
|---------------------------------|
|---------------------------------|
|---------------------------------|
|-2-2-5--2-2-2-5--2-2-2-5--2-7-5--|   Play 4 times
|-0-0-3--0-0-0-3--0-0-0-3--0-5-3--|
|---------------------------------|

Verse
|------------------------------------|
|------------------------------------|
|------------------------------------|
|------------------------------------|
|-2--------2--------2--------2-------|
|-0-0-0-0--0-0-0-0--0-0-0-0--0-0-0-0-|
pm  . . .    . . .    . . .    . . .

|------------------------------------|
|------------------------------------|
|------------------------------------|
|------------------------------------|
|-5--------5--------5--------5-------|
|-3-3-3-3--3-3-3-3--3-3-3-3--3-3-3-3-|
pm  . . .    . . .    . . .    . . .

|------------------------------------|
|------------------------------------|
|------------------------------------|
|------------------------------------|
|-7--------7--------7--------7-------|
|-5-5-5-5--5-5-5-5--5-5-5-5--5-5-5-5-|
pm  . . .    . . .    . . .    . . .

|------------------------------------|
|------------------------------------|
|------------------------------------|
|------------------------------------|
|-9--------9--------5--------5-------|
|-7-7-7-7--7-7-7-7--3-3-3-3--3-3-3-3-|        Repeat Once
pm  . . .    . . .    . . .    . . .

Chorus
|-------------------------------------------------------------|
|-------------------------------------------------------------|
|-------------------------------------------------------------|
|-7-7-7--5-5-5-5--------------------7-7-7-7--5-5-5-5----------|
|-5-5-5-5--3-3-3-3--7-7-7-7-7-7-7-7-5-5-5-5--3-3-3-3--5-5-5-7-|
|-------------------5-5-5-5-5-5-5-5-------------------3-3-3-5-|hold note


Just Listen to the CD but thats all you need to know
Tap to rate this tab
 
# A B C D E F G H I J K L M N O P Q R S T U V W X Y Z