Song name
# A B C D E F G H I J K L M N O P Q R S T U V W X Y Z

Xibalba - No Serenity tab

 -------------------------------------------------------------------------------
                             No Serenity - Xi-Balba
-------------------------------------------------------------------------------
Tabbed by: nikka_le200
E-mail: Chavoriffic@yahoo.com


***im fairly certain this band has two guitars, but other than in the end of the song
i cant seem to hear anywhere where its actually necessary. I play it alone with a 
drummer friend of mine
like this and it sounds spot on to me.


Tuning: Drop A

the intro is simple, just an open chord ring/bending noise
while the drums go




(0:24-0:54)

e|-------------------------------------------------------------|
B|-------------------------------------------------------------|
G|-------------------------------------------------------------|
D|--0-0--0--1--0--0-0--0--0-0-0--4-4--4--4-4-4--3-3--3--3-3-3--|
A|--0-0--0--1--0--0-0--0--0-0-0--2-2--2--2-2-2--3-3--3--3-3-3--|
E|--0-0--0--1--0--0-0--0--0-0-0--4-4--4--4-4-4--3-3--3--3-3-3--|

e|-------------------------------------------------------------|
B|-------------------------------------------------------------|
G|-------------------------------------------------------------|
D|--0-0--0--1--0--0-0--0--0-0-0--4-4--4--4-4-4--3-3--3--3-3-3--|
A|--0-0--0--1--0--0-0--0--0-0-0--2-2--2--2-2-2--3-3--3--3-3-3--|
E|--0-0--0--1--0--0-0--0--0-0-0--4-4--4--4-4-4--3-3--3--3-3-3--|

e|-------------------------------------------------------------|
B|-------------------------------------------------------------|
G|-------------------------------------------------------------|
D|--0-0--0--1--0--0-0--0--0-0-0--4-4--4--4-4-4--3-3--3--3-3-3--|
A|--0-0--0--1--0--0-0--0--0-0-0--2-2--2--2-2-2--3-3--3--3-3-3--|
E|--0-0--0--1--0--0-0--0--0-0-0--4-4--4--4-4-4--3-3--3--3-3-3--|

e|-------------------------------------------------------------|
B|-------------------------------------------------------------|
G|-------------------------------------------------------------|
D|--0-0--0--1--0--0-0--0--0-0-0--4-4--4--4-4-4--3-3--3--3-3-3--|
A|--0-0--0--1--0--0-0--0--0-0-0--2-2--2--2-2-2--3-3--3--3-3-3--|
E|--0-0--0--1--0--0-0--0--0-0-0--4-4--4--4-4-4--3-3--3--3-3-3--|

e|--------------------------------------------------------------------------|
B|--------------------------------------------------------------------------|
G|--------------------------------------------------------------------------|
D|--0----------------------------4--------------3---------------------------|
A|--0----------------------------2--------------3---------------------------|
E|--0----------------------------4--------------3---------------------------|

e|--------------------------------------------------------------------------|
B|--------------------------------------------------------------------------|
G|--------------------------------------------------------------------------|
D|--0----------------------------4--------------3------3------3------3------|
A|--0----------------------------2--------------3------3------3------3------|
E|--0----------------------------4--------------3------3------3------3------|




(0:55-1:45)

e|---------------------------------| 6X
B|---------------------------------|
G|---------------------------------|
D|--------1-----4------------------|
A|--(0-0)-1-----2------------------|
E|--(0-0)-1--0--4--3~--2-3~--0-1~--|




(1:46-2:14)

e|--------------------------------------------|
B|--------------------------------------------|
G|--------------------------------------------|
D|--------------------------------------------|
A|--------------------------------------------|
E|--(0-0)-0-(0-0)-13-(0)-12-(0-0)-/7--7\6-6~--|

e|-----------------------------------------------|
B|-----------------------------------------------|
G|-----------------------------------------------|
D|-----------------------------------------------|
A|-----------------------------------------------|
E|--(0-0)-0-(0-0)-13-(0)-12-(0-0)-/7--(0-0)-/6~--|

e|--------------------------------------------|
B|--------------------------------------------|
G|--------------------------------------------|
D|--------------------------------------------|
A|--------------------------------------------|
E|--(0-0)-0-(0-0)-13-(0)-12-(0-0)-/7--7\6-6~--|

e|-----------------------------------------------|
B|-----------------------------------------------|
G|-----------------------------------------------|
D|-----------------------------------------------|
A|--------------------------------/4--------/3---|
E|--(0-0)-0-(0-0)-13-(0)-12-(0-0)-/7--(0-0)-/6~--|

e|-------------------------------------|
B|-------------------------------------|
G|-------------------------------------|
D|-------------------------------------|
A|-------------------------------------|
E|--0-0-12-0-0-13-0-11-0-0-/7--7\6-6~--|

e|----------------------------------------|
B|----------------------------------------|
G|----------------------------------------|
D|----------------------------------------|
A|----------------------------------------|
E|--0-0-12-0-0-13-0-11-0-0-/7--(0-0)-/6~--|

e|-------------------------------------|
B|-------------------------------------|
G|-------------------------------------|
D|-------------------------------------|
A|-------------------------------------|
E|--0-0-12-0-0-13-0-11-0-0-/7--7\6-6~--|

e|----------------------------------------|
B|----------------------------------------|
G|----------------------------------------|
D|----------------------------------------|
A|-------------------------/4--------/3---|
E|--0-0-12-0-0-13-0-11-0-0-/7--(0-0)-/6~--|




(2:15-2:29)

e|-------------------------------------| 4X
B|-------------------------------------|
G|-------------------------------------|
D|-0-------0-----1----0----------------|
A|-0-(0-0)-0-(0)-1-0)-0-(0-0)-/3-3\2-2-|
E|-0-(0-0)-0-(0)-1-0)-0-(0-0)-/6-6\5-5-|



(3:00-2:58)

e|------------------------------------------------------| 4X
B|------------------------------------------------------|
G|------------------------------------------------------|
D|-0------------0------------1------------6------6------|
A|-0------------0------------1------------4------4------|
E|-0------------0------------1------------6------6------|






(2:59-3:28)

e|--------------------------------------------------------------| 4X
B|--------------------------------------------------------------|
G|--------------------------------------------------------------|
D|--------1--0--4--3-------------------1--0--4--3---------------|
A|--(0-0)-1--0--2--1-------------(0-0)-1--0--2--1-(1-3-2-0)-----|
E|--(0-0)-1--0--4--3--2-3~--0-1~-(0-0)-1--0--4--3-(1-3-2-0)-1~--|



3:29 to end


e|--------------------------------------------------------------|
B|--------------------------------------------------------------|
G|--------------------------------------------------------------|
D|--------------------------------------------------------------|
A|--(0-0)------------------------(0-0)--------------------------|
E|--(0-0)-1--0--4--3--2-3~--0-1~-(0-0)-1--0--4--3-(1-3-2-0)-1~--|




************************************

| /   slide up
| \   slide down
| h   hammer-on
| p   pull-off
| ~   vibrato
| +   harmonic
| x   Mute note
| b   Bend
| pb  Pre-bend
| br  Bend release
| pbr Pre-bend release
| brb Bend release bend
| (x) Palm mute

************************************
Tap to rate this tab
# A B C D E F G H I J K L M N O P Q R S T U V W X Y Z