Guitaretab - guitar tabs
Song name
# A B C D E F G H I J K L M N O P Q R S T U V W X Y Z

Xiii Stoleti - Justina tab

Pretty easy to play. Hope I transcribed it correctly. Enjoy!

Normal tuning.

Intro:
repeat several times
E----12--12--12--12----------12-----10-10-10-10-------10---8-8-8-8-----8-----|
B--10--10--10--10--10--11--10--10--8--8--8--8--8--9--8--8-6-6-6-6-6-7-6-6----|
G----------------------------------------------------------------------------|
D----------------------------------------------------------------------------|
A----------------------------------------------------------------------------|
E----------------------------------------------------------------------------|


E---7-7-7-7-----7----|
B--5-5-5-5-5-6-5-5---|
G--------------------|
D--------------------|
A--------------------|
E--------------------|


Main riff: repeat several times.
[ Tab from: http://www.guitaretab.com/x/xiii-stoleti/101641.html ]
E-------------------------------------------------------------------------|
B-------------------------------------------------------------------------|
G-------------------------------------------------------------------------|
D--7--7--7--7--5--5--5--5--3--3--3--3--2--2--2--2-------------------------|
A--7--7--7--7--5--5--5--5--3--3--3--3--2--2--2--2-------------------------|
E--5--5--5--5--3--3--3--3--1--1--1--1--0--0--0--0-------------------------|


Chorus: repeat 3 times.

E-------------------------------------------------------------------------|
B-------------------------------------------------------------------------|
G--5--5--5--5--7--7--7--7-------------------------------------------------|
D--5--5--5--5--7--7--7--7--7--7--7--7-------------------------------------|
A--3--3--3--3--5--5--5--5--7--7--7--7-------------------------------------|
E--------------------------5--5--5--5-------------------------------------|


Bridge:

E-------------------------------------------------------------------------|
B-------------------------------------------------------------------------|
G--5--5--5--5--7--7--7--7-------------------------------------------------|
D--5--5--5--5--7--7--7--7--2--2--2--2--5--5--5--5-------------------------|
A--3--3--3--3--5--5--5--5--2--2--2--2--5--5--5--5-------------------------|
E--------------------------0--0--0--0--3--3--3--3-------------------------|

Then main riff again. at some point the intro will pop up again, playing through the main riff.
Related for Justina tab
Advertisement will be closed in 10 seconds