Song name
# A B C D E F G H I J K L M N O P Q R S T U V W X Y Z

Xink - Laat Me Vrij chords

Highlighted       Show chord diagrams
Laat Me Vrij
X!NK

In feite is dit nummer makkelijker met CAPO III. Als je die akkorden wil, laat het me 
dan weten in de comments. Je mag ook altijd een voorstel doen voor een ander nummer.


Intro: 
    Cm      G#      D#     A#   _2x_
e|--------------------------------------|
B|-----4---------4-------8--------6-----|
G|o------------------------------------o|
D|o--5---5-----6---6---8---8----8---8--o|
A|--3-----------------6-----------------|
E|-----------4----------------6---------|

Cm  G#         D#    A#   Cm      G#     D#          A#
Overal spelen ze de baas, al die wetten vind ik zo dwaas.
Cm       G#         D#        A#   Cm  G#       D#   A#
er zijn regels overtreedt ze niet, ik vind dat hypocriet.
Cm           G#   D#     A#  Cm  G#     D#         A#
Je mag niet doen wat je wil, ik hou me niet meer stil.

 Cm      G#                D#       A#                Cm
Dit leven is van mij, zeg me niet steeds wat ik moet doen.
         G#          D#                A#       Cm
Dit leven is van mij, ik volg je maar laat me vrij.

    Cm      G#      D#     A#   _2x_
e|--------------------------------------|
B|-----4---------4-------8--------6-----|
G|o------------------------------------o|
D|o--5---5-----6---6---8---8----8---8--o|
A|--3-----------------6-----------------|
E|-----------4----------------6---------|

Al die regels maken mij moe. Wat is dit voor gedoe ?
Gooi je mening in de strijd. Draag je naam met waardigheid.
Als je wil kan je alles aan. En al je zorgen kan je verslaan

Dit leven is van mij, zeg me niet steeds wat ik moet doen.
Dit leven is van mij, ik volg je maar laat me vrij.

Solo:
  Cm G# D# A#     Cm  G#  D# A#   
e|------------------|------------------|
B|----------8-6-----|------------------|
G|--------------8-5-|-8----------------|
D|------------------|------------------|
A|------------------|------------------|
E|------------------|------------------|
   Cm G#  D# A#    Cm G#  D# A#     
e|------------------|---------------6--|
B|--------6---------|---------6-8------|
G|-5-8-8----8-------|--5-8-8-----------|
D|--------------8---|------------------|
A|------------------|------------------|
E|------------------|------------------|
   Cm G#  D# A#    Cm G# D# A#   
e|-6-----6----------|----------6---6---|
B|----------9--8-6--|------------9-----|
G|------------------|-8----------------|
D|------------------|------------------|
A|------------------|------------------|
E|------------------|------------------|
   Cm G#  D# A#  Cm G#  D# A#     
e|-11---11\--6------|-------------------|
B|-------------9-8--|-8---6-------------|
G|------------------|----------8-8------|
D|------------------|-------------------|
A|------------------|-------------------|
E|------------------|-------------------|

Dit leven is van mij, zeg me niet steeds wat ik moet doen.
Dit leven is van mij, ik volg je maar laat me vrij.


Ik hoop dat je 't nu wel weet. Dat je het nooit vergeet.
En dat je zal verstaan, waar alles is misgegaan.


Dit leven is van mij, zeg me niet steeds wat ik moet doen.
Dit leven is van mij, ik volg je maar laat me vrij.

Dit leven is van mij, zeg me niet steeds wat ik moet doen.
Dit leven is van mij, ik volg je maar laat me vrij.

Outro: 
    Cm      G#      D#     A#   _2x_
e|--------------------------------------|
B|-----4---------4-------8--------6-----|
G|o------------------------------------o|
D|o--5---5-----6---6---8---8----8---8--o|
A|--3-----------------6-----------------|
E|-----------4----------------6---------|
Tap to rate this tab
# A B C D E F G H I J K L M N O P Q R S T U V W X Y Z