Song name
# A B C D E F G H I J K L M N O P Q R S T U V W X Y Z

Xiu Xiu - Fast Car tab

Song: Fast Car (Tracy Chapman cover)
Artist: Xiu Xiu
Album: La ForÍt

Tab by Mathias Isaksen

Tuning: Standard EADGBe

*************************************************

--------------MAIN PART--------------

e|------------------------------------|
B|-------------------10-------9-------|
G|---6h(7)-6h(9)-----9--------9-------|
D|---7-----7---------7--------7-------|
A|------------------------------------|
E|------------------------------------|
Strummed very softly


----------------CHORUS----------------

The chorus consists of the chords played at the end of the main part
      A5       A7M(no3)
e|---------------------|
B|----10-------9-------|
G|----9--------9-------|
D|----7--------7-------|
A|---------------------|
E|---------------------|
I can't really tell if it's only the A5 or both
Tap to rate this tab
# A B C D E F G H I J K L M N O P Q R S T U V W X Y Z