Song name
# A B C D E F G H I J K L M N O P Q R S T U V W X Y Z

Xiu Xiu - Sad Pony Guerilla Girl tab

Sad Pony Guerilla Girl
Xiu Xiu
A Promise
tabbed by Kris Hutson

this is might be wrong e-mail me if you have questions IMissMrSmith@aol.com

--------------------------------------------------------------------------|
--------------------------------------------------------------------------|
--------------------------------------------------------------------------| 3x
-3-------3------------3-----3-4-3-----------------------------------------|
---4--4----4--4----1----1-------------------------------------------------|
--------------------------------------------------------------------------|

--------------------------------|
--------------------------------|
--------------------------------|
---------------------3-4-3------| 1x
--3-------3-------1-------------|
----4--4----4--4----------------|

Verse
-----------------------------------------------------------------------|
-----------------------------------------------------------------------|
-----------------------------------------------------------------------|
---3---3---3---3-------------------------------------------------------|
---1---x---x---x-------------------------------------------------------|
-------1---2---1-------------------------------------------------------|

--------------|
----6----2----|
----6----3----| 3x
----6----3----|
----4----1----|

---------------|
---------------|
---5----6------|
---6----8------| 1x
---6----8------|
---4----6------|


again if you have questions e-mail me
Tap to rate this tab
# A B C D E F G H I J K L M N O P Q R S T U V W X Y Z