Song name
# A B C D E F G H I J K L M N O P Q R S T U V W X Y Z

Xiu Xiu - Brooklyn Dodgers tab

-------------------------------------------------------------------------------
			    BROOKLYN DODGERS - Xiu Xiu
-------------------------------------------------------------------------------
Tabbed by:adamator
Email:www.leftovermalt.com

Tuning:standard

e|------------------|
B|------------------|
G|------------------|
D|------------------|
E|8-8-8-8-8-8-8-8---|

this starts at "sorry i walked away..." and goes right unti the second verse.
easy easy easy. you dont even hafta know how to play guitar to do this.

e|0-0-0-0-0-0-0------|
B|-------------------|
G|-------------------|
D|-------------------|
A|-------------------|
E|8-8-8-8-8-8-8------|
"i can't have nice things"

e|0-0-0-0-0-0-0------|
B|-------------------|
G|-------------------|
D|-------------------|
A|-------------------|
E|3-3-3-3-3-3-3------|
"like a boy who stays around"

e|0-0-0-0-0-0-0-3-3-3-3-0-0-0-1-1-1-|
B|----------------------------------|
G|----------------------------------|
D|----------------------------------|
A|----------------------------------|
E|1-1-1-1-1-1-1-1-1-1-1-1-1-1-1-1-1-|
"when i needed him the most"

Tap to rate this tab
# A B C D E F G H I J K L M N O P Q R S T U V W X Y Z