Song name
# A B C D E F G H I J K L M N O P Q R S T U V W X Y Z

Xiu Xiu - I Love The Valley Oh tab

				Xiu Xiu- I luv the Valley OH

Bass riff (throughout almost the entire song)

E------------------------------------------------------------------------|
B------------------------------------------------------------------------|
G------------------------------------------------------------------------|
D------------------------------------------------------------------------|
A------------------------------------------------------------------------|
E---1212-12-12----3------3----1010-10-108---8-8-8---------------------|
-

E----------------------------------------------------------------------|
B----------------------------------------------------------------------|
G----------------------------------------------------------------------|
D----------------------------------------------------------------------|
A----------------------------------------------------------------------|
E1212-12-12----3-----3---8---8-8-810---10-10-10---------------------|

Opening Riff (start to 0:07, comes in 0:27-0:49ish)

E---77-7--710-10-10-10-----------------------------------------------|
B---8---8-8--88---888-----------------------------------------------|
G---9---9-9--99---9---99---------------------------------------------|
D----------------------------------------------------------------------|
A----------------------------------------------------------------------|
E----------------------------------------------------------------------|


Melody (comes in 0:06 plays in backround)

E-----------7---------7--------7---------------7------------------|
B---------88---------8--------8---8-8-8-----8--------------------|
G-----------------------------------------------------------------|
D-----------------------------------------------------------------|
A-----------------------------------------------------------------|
E-----------------------------------------------------------------|



Break (comes in 1:14 and finishes the song at 2:05)

E----------------------------------------------------------------------|
B----------------------------------------------------------------------|
G----------------------------------------------------------------------|
D----------------------------------------------------------------------|
A---10-1099---7---9---5-----10-10---99---79--10--------------------|
E----------------------------------------------------------------------|

Around 2:11 (same as above but one added lick)

E---------------------------------------------------------------------|
B---------------------------------------------------------------------|
G---------------------------------------------------------------------|
D---------------------------------------------------------------------|
A---10-10997-9/1414-12--------------------------------------------|
E---------------------------------------------------------------------|
Tap to rate this tab
# A B C D E F G H I J K L M N O P Q R S T U V W X Y Z