Guitaretab - guitar tabs
Song name
# A B C D E F G H I J K L M N O P Q R S T U V W X Y Z

Xl Virgin - Platik Hippie tab

Band: XL Virgin
Song: Plastic Hippie
Made: 14/82008

X2 Omk:
E:---------------------------------------------------------------3-3--6-6---------------|
A:-5-5---5-5-------------5-5-5-5-------------5-5-5-5-------------5-5-8-8--3-3--3-3--5-5|
D:-7-7---7-7-------------7-7-7-7-------------7-7-7-7-----------------------5-5--5-5--7-7|
G:------------------7-5-----------5h7-----------------7b-5-7b-5-------------------------|
H:--------------8-5-------------------5h8-----------------------------------------------|
e:------------5---------------------------5---------------------------------------------|

X4 vers:
E:-3-3-3-3--6-6-6-------------------0-3-3-3-3--6-6-6----------------|
A:-5-5-5-5--8-8-8--3-3-3-3-3-3-3-3--0-5-5-5-5--8-8-8-6-6-6-6-6-6-6-6|
D:-----------------5-5-5-5-5-5-5-5-------------------8-8-8-8-8-8-8-8|
G:------------------------------------------------------------------|
H:------------------------------------------------------------------|
e:------------------------------------------------------------------|

X2 Omk:
E:---------------------------------------------------------------3-3--6-6---------------|
A:-5-5---5-5-------------5-5-5-5-------------5-5-5-5-------------5-5-8-8--3-3--3-3--5-5|
D:-7-7---7-7-------------7-7-7-7-------------7-7-7-7-----------------------5-5--5-5--7-7|
G:------------------7-5-----------5h7-----------------7b-5-7b-5-------------------------|
H:--------------8-5-------------------5h8-----------------------------------------------|
e:------------5---------------------------5---------------------------------------------|
[ Tab from: http://www.guitaretab.com/x/xl-virgin/178571.html ]
X4 vers:
E:-3-3-3-3--6-6-6-------------------0-3-3-3-3--6-6-6----------------|
A:-5-5-5-5--8-8-8--3-3-3-3-3-3-3-3--0-5-5-5-5--8-8-8-6-6-6-6-6-6-6-6|
D:-----------------5-5-5-5-5-5-5-5-------------------8-8-8-8-8-8-8-8|
G:------------------------------------------------------------------|
H:------------------------------------------------------------------|
e:------------------------------------------------------------------|

X8 C-stykke:
E:-3--3---3-3--------|
A:-5--5-3-5-5-6--5-3-|
D:------5-----8--7-5-|
G:-------------------|
H:-------------------|
e:-------------------|

Omk:
E:---------------------------------------------------------------3-3--6-6---------------|
A:-5-5--5-5-------------5-5-5-5-------------5-5-5-5-------------5-5-8-8--3-3--3-3--5-5-|
D:-7-7--7-7-------------7-7-7-7-------------7-7-7-7-----------------------5-5--5-5--7-7-|
G:------------------7-5-----------5h7-----------------7b-5-7b-5-------------------------|
H:--------------8-5-------------------5h8-----------------------------------------------|
e:------------5---------------------------5---------------------------------------------|

Slutnings start:
E:--------------------------------------------------------------3-3--6-6----------|
A:-5-5--5-5------------5-5-5-5-------------5-5-5-5--------------5-5-8-8--3-3--3-3|
D:-7-7--7-7------------7-7-7-7-------------7-7-7-7------------------------5-5--5-5|
G:------------------7-5----------5h7-----------------7b-5-7b-5--------------------|
H:--------------8-5------------------5h8------------------------------------------|
e:------------5--------------------------5----------------------------------------|

Slutning:
E:-3-3--6-6---------------------|
A:-5-5--8-8--6-6---5\---0-------|
D:-----------8-8---8\---2-------|
G:------------------------------|
H:------------------------------|
e:------------------------------|