Song name
# A B C D E F G H I J K L M N O P Q R S T U V W X Y Z

Xlooking Forwardx - Xlfx tab

Artist - xLooking Forwardx
Album - What This Means to Me
www.xlookingforwardx.com

Standard Tuning
. - Palm Mute


------------------------------------------------------|
------------------------------------------------------|
-------5-5-5-------7-5-5------------------------------|
-7-7-7-5-5-5-7-7-7-7-5-5---x4-------------------------|
-7-7-7-3-3-3-7-7-7-5-3-3------------------------------|
-5-5-5-------5-5-5------------------------------------|

------------------------------------------------------|
------------------------------------------------------|
------5-5--7-7--10--9---------------------------------|
-7-7--5-5--7-7--10--9---x4----------------------------|
-7-7--3-3--5-5--8---7---------------------------------|
-5-5--------------------------------------------------|

------------------------------------------------------|
------------------------------------------------------|
------------------------------------------------------|
-7-7-7-7-7-7--7---------------------------------------|
-7-7-7-7-7-7--7---------------------------------------|
-5-5-5-5-5-5--5---------------------------------------|
     . . . .

Yeah, thats it. Really short intro song, I'm working on doing most of the What This 
to Me album. If you have any questions i.m. me on aim at xchasegrillox or myspace at
www.myspace.com/chasegrillo
Tap to rate this tab
 
# A B C D E F G H I J K L M N O P Q R S T U V W X Y Z