Guitaretab - guitar tabs
Song name
# A B C D E F G H I J K L M N O P Q R S T U V W X Y Z

Xpunkha - Blankanieves Mala Hostia tab

Cancion: Blankanieves (mala hostia)
Banda: Xpunkha
Disco: Sin control... mi rock n roll
Afinacion: EADGBe
bl@st3r

Intro
e-------------------------------------------------|
b-1-1-1--1-1--------------1-1-1--1-1--------------|
g-2-2-2--2-2--------------0-0-0--0-0--------------|
d-2-2-2--2-2--3-3-3--3-3--2-2-2--2-2--2-2-2--2-2--|
a-0-0-0--0-0--3-3-3--3-3--3-3-3--3-3--2-2-2--2-2--|
E-------------1-1-1--1-1--------------0-0-0--0-0--|
[ Tab from: http://www.guitaretab.com/x/xpunkha/60307.html ]
Verso 1
e-------------------------------------------------|-3-3-1-1-0-0-|
b-1-1-1--1-1--------------1-1-1--1-1--------------|-3-3-1-1-0-0-|
g-2-2-2--2-2--------------0-0-0--0-0--------------|-0-0-2-2-0-0-|
d-2-2-2--2-2--3-3-3--3-3--2-2-2--2-2--2-2-2--2-2--|-0-0-3-3-2-2-|
a-0-0-0--0-0--3-3-3--3-3--3-3-3--3-3--2-2-2--2-2--|-2-2-3-3-2-2-|
E-------------1-1-1--1-1--------------0-0-0--0-0--|-3-3-1-1-0-0-|

Verso 2 (con distorcion)
e------------------------------------------------|-------------|
b------------------------------------------------|-------------|
g-7-7-7--7-7--------------5-5-5--5-5-------------|-------------|
d-7-77--7-7--3-3-3--3-3--5-5-5--5-5--2-2-2--2-2-|-5-5-3-3-2-2-|
a-5-5-5--5-5--3-3-3--3-3--3-3-3--3-3--2-2-2--2-2-|-5-5-3-3-2-2-|
E-------------1-1-1--1-1--------------0-0-0-0-0-|-3-3-1-1-0-0-|

Puente/Outro
e|---------------------|
b|---------------------|
g|-5-5-------5-5-------|
d|-5-5--3-3--5-5--7-7--|
a|-3-3--3-3--3-3--7-7--|
E|------1-1-------5-5--|

Termina en La (7)
 			(7)
			(5)

Maes, eso es todo, disfrutenla, voy a ver si la publico en bajo un dia de estos.
Tuanis y viva el rock nacional, excepto mentados y evolucion, jajajaja

Blasttorres@hotmail.com