Song name
# A B C D E F G H I J K L M N O P Q R S T U V W X Y Z

Xrepresentx - Marked tab

I sounded this out and it souds pretty good.
FOR TIMING LISTEN TO THE SONG!

xREPRESENTx
Marked
Tuning: Dropped D

myspace.com/xrepresentx

*=Palm Mute


-Drum Intro- [0:00-0:11]

-Guitar Intro- [0:11-0:22]
e|-----------------------------------------------------------------------|
b|-----------------------------------------------------------------------|
g|-----------------------------------------------------------------------|
d|-0~~~~--00-0-0000-0-00-00----00-0-0000-0000-6--------------------------|
a|-0~~~~--00-0-0000-0-00-00----00-0-0000-0000-6--------------------------|
d|-0~~~~--00-0-0000-0-00-00----00-0-0000-0000-6--------------------------|
          ** * **** * ** **    ** * **** ****

-Verse 1- [0:22-0:44]
e|-----------------------------------------------------------------------|
b|-----------------------------------------------------------------------|
g|-----------------------------------------------------------------------|
d|-00-0-0000-0-00-00----00-0-0000-0-00-00-6------------------------------|x4
a|-00-0-0000-0-00-00----00-0-0000-0-00-00-6------------------------------|
d|-00-0-0000-0-00-00----00-0-0000-0-00-00-6------------------------------|
   ** * **** * ** **    ** * **** * ** ** 

-Two Step- [0:44-1:14]
e|-----------------------------------------------------------------------
b|-----------------------------------------------------------------------
g|------7-5-7-88-8-77-7-------------55-8-77-----7-5-7-88-8-77-7----------
d|-0~~--7-5-7-88-8-77-7--00-0-00-0--55-8-77--0--7-5-7-88-8-77-7----------
a|-0~~--5-3-5-66-6-55-5--00-0-00-0--33-6-55--0--5-3-5-66-6-55-5----------
d|-0~~-------------------00-0-00-0-----------0---------------------------

e|--------------------------------------|
b|--------------------------------------|
g|--------------------------------------|
d|-6-6568-8650--------------------------|x3
a|-6-6568-8650--------------------------|
d|-6-6568-8650--------------------------|

-Verse 2- [1:14-1:46]
e|-----------------------------------------------------------------------|
b|-----------------------------------------------------------------------|
g|-----------------------------------------------------------------------|
d|-0-0-0-0-0-0-0-0-0-0-6568-88-888-6-666-656-0---------------------------|x7
a|-0-0-0-0-0-0-0-0-0-0-6568-88-888-6-666-656-0---------------------------|
d|-0-0-0-0-0-0-0-0-0-0-6568-88-888-6-666-656-0---------------------------|
   * * * * * * * * * *                       

e|-----------------------------------------------------------------------|
b|-----------------------------------------------------------------------|
g|-----------------------------------------------------------------------|
d|-0-0-0-0-0-0-0-0-0-0-6568-88-888-6-666-6-5-6---------------------------|
a|-0-0-0-0-0-0-0-0-0-0-6568-88-888-6-666-6-5-6---------------------------|
d|-0-0-0-0-0-0-0-0-0-0-6568-88-888-6-666-6-5-6---------------------------|
   * * * * * * * * * *                   * * *
-Breakdown- [1:46-End]
e|----------------|------------------------------------------------------|
b|----------------|------------------------------------------------------|
g|----------------|------------------------------------------------------|
d|-000-000-000-00-|------------000-00-650-680-65--000-000-000-00---------|x4
a|-000-000-000-00-|------------000-00-650-680-65--000-000-000-00---------|
d|-000-000-000-00-|------------000-00-650-680-65--000-000-000-00---------|

(Repeat The End Part Of The Above Staff Twice With A Tempo Slowdown.)

Comments or Questions:
e-Mail: gdwarning374@yahoo.com
AIM: xBrutal Joex
Tap to rate this tab
# A B C D E F G H I J K L M N O P Q R S T U V W X Y Z