Xtc - Respectable Street tab

Here's the intro for Respectable Street, Much more properly tabbed.

e----7-----0-------|
b----7---0-9-------|
g------0-0-9-------|
d-9----0-7-9-------|
a-9----0-6-7-------|
e-7----0-7-0-------|

e----7-x-----0-------|
b----7-x---0-9-------|
g------x-0-0-9-------|
d-9----x-0-7-9-------|
a-9----x-0-6-7-------|
e-7----x-0-7-0-------|

I'm not too sure about the part right after fretting the 7th fret on the b and high e 
strings. Its probably different but this will work a lot better than the other tab on here.

Submitted by Gargoyle2500.
Tap to rate this tab
 
# A B C D E F G H I J K L M N O P Q R S T U V W X Y Z