Song name
# A B C D E F G H I J K L M N O P Q R S T U V W X Y Z

Xtc - Real By Reel tab

Tabbed by: Antaios
E-mail: geeter1321@yahoo.com

Tuning: standard

e|-----------------------------------------------10h11p10----8h10p8---6h8p6--|
B|------9-8--------------------------10h11h12h13----------11--------9-------8|
G|-10-8-----10~-------------10-12-13-----------------------------------------|
D|-------------10~-10-12-13--------------------------------------------------|
A|---------------------------------------------------------------------------|
E|---------------------------------------------------------------------------|

e|-4h6p4----------------------------------------------------5-6-5----------8~|
B|-------6-----4-4p3p1-3-1-----1----------------------6-----------8h10p8-6---|
G|---------5~--------------3-2-----2---------------7-3--3/7------------------|
D|-------------------------------3-----3-----5--8-5--------------------------|
A|-----------------------------------3---0--3--6-----------------------------|
E|---------------------------------------------------------------------------|


************************************

| /   slide up
| \   slide down
| h   hammer-on
| p   pull-off
| ~   vibrato
| +   harmonic
| x   Mute note
| b   Bend
| pb  Pre-bend
| br  Bend release
| pbr Pre-bend release
| brb Bend release bend

************************************
Tap to rate this tab
 
# A B C D E F G H I J K L M N O P Q R S T U V W X Y Z