Song name
# A B C D E F G H I J K L M N O P Q R S T U V W X Y Z

Xutos E Pontapes - Contentores tab

Contentores
xutos e pontapes
Tab by Ricardo Sousa
Normal Tune (E)

Guitarra entra                             versos

 ----------------------------------]---------------------------------------|
 ----------------------------------]---------------------------------------|
 ----7-2---------------------------]--2-----2------------2----7----7-------|
 -5--7-2-- 2 x--2------------------]--2---2---2---2----2------7---7-7-7----|
 -5--5-0--------2------------------]--0-0-------0----0--------5--5---5--5--|
 -3-------------0------------------]---------------------------------------|

  bridge                                    refrão  nao vou nada mal ....
 ----------------------------------]-----------------------------------------|
 ----------------------------------]-----------------------------------------|
 -----7--2-------2--7---2----------]---5-------4x----------------------------|
 --5--7--2--2x-2-2--7-2-2----------]---5--2----------------------------------|
 --5--5--0-----2-0--5-2-0----------]---3--2----------------------------------|
 --3-----------0------0------------]------1----------------------------------|


para algum esclarecimento, duvida pergunta
contacte outlinerock@tripod.com ou visite o
site  Http://outlinerocks.tripod.com
Tabbed By  R. Sousa
Tap to rate this tab
# A B C D E F G H I J K L M N O P Q R S T U V W X Y Z