Song name
# A B C D E F G H I J K L M N O P Q R S T U V W X Y Z

Xutos E Pontapes - Minha Maneira tab

À minha maneira
Xutos e pontapés
Tab by Ricardo Sousa


intro C/ Delay
 ----------------------------------]--------------------------------------|
 ------5---------------------------]------3-------------------------------|
 ----5--5----------2---------------]-----3--3---------4-------------------|
 --5------5------3---3-------------]---3-----3------5---5-----------------|
 -3------------3-------3-----------]-1------------5-------5---------------|
 ------------1---------------------]------------3-------------------------|

Versos   em qualquer dia . ..           bridge  já sei que arder . .
 ----------------------------------]---------------------------------------|
 ----------------------------------]---------------------------------------|
 --5----3--------------------------]-2---5--2----5-------------------------|
 --5-3--3-5----2x---depois---------]-2-5-5--2-5--5-------------------------|
 --3-3--1-5------------------------]-0-5-3--0-5--3-------------------------|
 ----1----3------------------------]---3------3----------------------------|
 e as forças . .
 ----------------------------------]---------------------------------------|
 ----------------------------------]---------------------------------------|
 -2-----------------3333-----------]---------------------------------------|
 -2-5--3-2-333--555-3333---555-----]---------------------------------------|
 -0-5--3-2-333--555-1111---555-----]---------------------------------------|
 ---3--1-0-111--333--------333-----]---------------------------------------|

Para mais informações, sugestões contacte
outlinerocks.tripod.com ou visite o site
 Http://outlinerocks.tripod.com
tabbed by R.Sousa
Tap to rate this tab
 
# A B C D E F G H I J K L M N O P Q R S T U V W X Y Z