Song name
# A B C D E F G H I J K L M N O P Q R S T U V W X Y Z

Xuxa - Ilarie tab

Intro + Riff

e|-------------------------------------------------------------------|
B|-------------------------------------------------------------------|
G|-------------------------------------------------------------------|
D|-------------------------------------------------------------------|
A|-----4--6--4--6--4---------4--6--4--6--4---------4--6--4--6--4-----|
E|--2-----------------4~--4-----------------2~--2-----------------4~-|



e|-----------------------|
B|--6--------------------|
G|-----6-----------------|
D|--------8--6--4--------|
A|-----------------------|
E|-----------------------|
 
This is a brazilian song, i hope you like it
Tap to rate this tab
# A B C D E F G H I J K L M N O P Q R S T U V W X Y Z