Song name
# A B C D E F G H I J K L M N O P Q R S T U V W X Y Z

Xyz - Inside Out tab

drop Db
(half step down drop D)

Intro- after piano part
\--------------------------|
\--------------------------|
\--5-----------------------|
\--5-5-6-3-5-1-3-0---------|
\--3-5-6-3-5-1-3-0---------|
\----5-6-3-5-1-3-0---------|


Verse (pretty sure, basic structure, not positive, sounds about right,
also playing the chords palm muted sounds ok playing along.)

\---------------------------------------------------------------------|
\---------------------------------------------------------------------|
\------5-------5------------------------------------------------------|
\---5-5-5-5-5-5-5-5----3-------3-------6-------8-----------10---------|
\--3-3---3-3-3---3--3-3-3-3-3-3-3-3-6-6-6-6-8-8-8-8--10--10--10--10---|
\------------------3-3---3-3-3---3-6-6---6-8-8---8-10--10------10-----|

\---------------------------------------------------------------------|
\---------------------------------------------------------------------|
\---------------------------------------------------------------------|
\--6-3-5-1--(after second time play this)-----------------------------|
\--6-3-5-1------------------------------------------------------------|
\--6-3-5-1--------------------------------6-6-3-3-5-5-1-0-------------|

Chorus (strumming whole time)
\-------------------------------------------------|
\-------------------------------------------------|
\-5-----------------------------------------------|
\-5-------------------------1---------------------|
\-3-------------------------1---------------------|
\---------------------------1---------------------|
  Will you know me when the lights go out
  Will you ever try to      save yourself
\-------------------------------------------------|
\-------------------------------------------------|
\--3----------------------------------------------|
\--3--------------3-------------------------------|
\--1--------------3-------------------------------|
\-----------------3-------------------------------|
   Hush, hush, or will you be the enemy
   Hush. hush,    When you're living inside out

Part after the chorus: same chords as intro, each played twice
instead of once.

Quiet part: palm muted at first, then goes to open
\-------------------------------------------------|
\-------------------------------------------------|
\-------------------------------------------------|
\-------------------------------------------------|
\--3-3--------------------------------------------|
\-----5-5-6-6-3-3-5-5-1-1-3-3-1-0-----------------|

that's all the parts, the slower sounding choruses are played the same
but with a different strumming pattern. buy the song off I tunes, and
listen to it for the patterns, changes, timing.

Great song by an amazing band listen to em, love em, see them as much as
possible, vote for them on much/MTV you know the drill
Tap to rate this tab
# A B C D E F G H I J K L M N O P Q R S T U V W X Y Z