Xyz - Hh Boogie tab

Guitar Tabs Template @ Ultimate Guitar ArchiveGuitar Tabs Template
-----------------------------------------------------------------
H.H. Boogie - XYZ
-----------------------------------------------------------------
Tabbed by: ikjetil
Email:

Tuning: e B G D A E


e|-1/2-2---------------------------------------------------------|
B|-1/2-2---2-----------------------------------------------------|
G|-------4-2---2-------------------------------------------------|
D|-----------4---------------------------------------------------|
A|---------------------------------------------------------------|
E|---------------------------------------------------------------|

                              A.H
e|-1/2-2---------------------------------------------------------|
B|-1/2-2---2-------------------------x-2-4b~---------------------|
G|-------4-2-----------------------2-x-2-4b~---------------------|
D|-----------4---7p4-4-x-2-x-4-4b~-------------------------------|
A|-------------4-------------------------------------------------|
E|---------------------------------------------------------------|

                              A.H
e|-1/2-2---------------------------------------------------------|
B|-1/2-2---2-------------------------x-2-------------------------|
G|-------4-2-----------------------2-x-2-------------------------|
D|-----------4---7p4-4-x-2-x-4-4b~-------2-----------------------|
A|-------------4-------------------------2-----------------------|
E|---------------------------------------0-----------------------|

                               A.H       A.H
e|-1/2-2---------------------------------------------------------|
B|-1/2-2---2-----------------------2-x-2-------------------------|
G|-------4-2-----------------------2-x-2-4b~---------------------|
D|-----------4---7p4-4-x-2-x-4-4b~-------------------------------|
A|-------------4-------------------------------------------------|
E|---------------------------------------------------------------|

                              A.H
e|-1/2-2---------------------------------------------------------|
B|-1/2-2---2-------------------------x-2-------------------------|
G|-------4-2-----------------------2-x-2-------------------------|
D|-----------4---7p4-4-x-2-x-4-4b~-------2-----------------------|
A|-------------4-------------------------2-----------------------|
E|---------------------------------------0-----------------------|


Tablature Legend
----------------
  b   - bend
 /\   - slide into or out of (from/to "nowhere")
 A.H  - artificial harmonic
  ~   - vibrato
Tap to rate this tab
 
# A B C D E F G H I J K L M N O P Q R S T U V W X Y Z