Song name
# A B C D E F G H I J K L M N O P Q R S T U V W X Y Z

Xzibit - Front 2 Back tab

-------------------------------------------------------------------------------
                                                     Front 2 Back - Xzibit
-------------------------------------------------------------------------------
Album: Restless
Year: 2000
Tabbed by: Istarii
E-mail: istariimusic@hotmail.com

Tuning: Standard

 Fig. 1 (higher pitched strings) End Fig. 1

e|---------------------------------------------------------|
B|---------------------------------------------------------|
G|---------------------------------------------------------|
D|-18--16--13----13------------18--16--13----13------------|
A|-16--14--11----11--16--14----16--14--11----11--16--14----|
E|-------------------14--12----------------------14--12----|


 Fig. 3                             End Fig. 3

e|-------------------------------------------|
B|-------------------------------------------|
G|---------11h13-11\9------------------------|
D|-------------------------------------------|
A|-------------------------------------------|
E|-------------------------------------------|


     h = hammer on
Fig. 1 = Intro/Verse/Chorus (play whenever the high strings kick in)
Fig. 2 = Flourish on the synth
Tap to rate this tab
# A B C D E F G H I J K L M N O P Q R S T U V W X Y Z