Song name
# A B C D E F G H I J K L M N O P Q R S T U V W X Y Z

Y And T - From The Moon tab

Help us improve GuitareTab! Take a short survey!
-------------------------------------------------------------------------------
			     From The Moon - Y and T
-------------------------------------------------------------------------------
Tabbed by:Ed Morones
Email:5150rocker@sbcglobal.net

Tuning:Standard

e|---------------------------------------------|
B|-----5--10b12r10~~~~~~---5--10b12b13r10~~~~~-|
G|----5-------------------5--------------------|
D|--/7------------------/7---------------------|
A|---------------------------------------------|
E|---------------------------------------------|

e|-----5/12~~~b13r12-10-9~~~~10b12r10-9-7\----|
B|----6---------------------------------------|
G|--/7----------------------------------------|
D|--------------------------------------------|
A|------------------------------------------0-|
E|--------------------------------------------|

e|---------------------------------------------|
B|-----5--10b12r10~~~~~~---5--10b12b13r10~~~~~-|
G|----5-------------------5--------------------|
D|--/7------------------/7---------------------|
A|---------------------------------------------|
E|---------------------------------------------|

e|-----5/12~~~b13r12-10-9~~~~10b12r10-9-7~~~~-|
B|----6---------------------------------------|
G|--/7----------------------------------------|
D|--------------------------------------------|
A|--------------------------------------------|
E|--------------------------------------------|

e|-------7h8-5--------------------------------|
B|--9h10--------------------------------------|
G|--------------------------------------------|
D|--------------------------------------------|
A|--------------------------------------------|
E|--------------------------------------------|

 Alternate ending begiining of Forever
e|--5h7p5h7p5h7p5h7p5h7p5h7p5h7---------------|
B|--------------------------------------------|
G|--------------------------------------------|
D|--------------------------------------------|
A|--------------------------------------------|
E|--------------------------------------------|


| /  slide up
| \  slide down
| h  hammer-on
| p  pull-off
| ~  vibrato
| +  harmonic
| x  Mute note
===============================================================================
Related for From The Moon tab