Song name
# A B C D E F G H I J K L M N O P Q R S T U V W X Y Z

Y And T - Dont Stop Runnin tab

INTRO

|-----------------------------------------------------------|
|--o-----------------------------------------------------o--|
|------------------------4---2--4--2-----4---2--4--2--------|
|--------9---7--9--7------------------2---------------7-----|	REPEAT 1 TIME
|--o--7---------------4---------------2---------------5--o--|
|-----5---------------2---------------0---------------------|


VERSE

P.M.  ...............     ...........................
|-------------------------------------------------------|
|-------------------------------------------------------|
|-------------------------------------------------------|
|-------------------------------------------------------|
|--4--44444444444444/=12--1212121212121212121212121212--|
|--2--22222222222222/=10--1010101010101010101010101010--|
			  ^ 10'S AND 12'S 


CHORUS

|-----------------------------------------------------------|
|--o-----------------------------------------------------o--|
|------------------------4---2--4--2-----4---2--4--2--------|
|--------9---7--9--7------------------2---------------7-----|	REPEAT 1 TIME
|--o--7---------------4---------------2---------------5--o--|
|-----5---------------2---------------0---------------------|
Tap to rate this tab
# A B C D E F G H I J K L M N O P Q R S T U V W X Y Z