Song name
# A B C D E F G H I J K L M N O P Q R S T U V W X Y Z

Yaatri - Mithya Prem tab

{www.yaatribd.com}

ok this a really kool song with awesome lyrics. the tab is pretty accurate, actually 
accurate, i've performed the song live...

I'll try to portray the strum pattern, if u dont understand , figure it out yourself..

Tuning: Standard

Chords:

Intro: (x4)                     Verse: (x4)

   D    A    G     A              D           A         G       A
|--2-2--0-0--3-3--0-0-0-0----||---2-22-2222--0-0-00--3-33-3333--0-0-0--|
|--3-3--2-2--3-3--2-2-2-2----||---3-33-3333--2-2-22--3-33-3333--2-2-2--|
|--2-2--2-2--0-0--2-2-2-2----||---2-33-3333--2-2-22--0-00-0000--2-2-2--|
|--0-0--2-2--0-0--2-2-2-2----||---0-00-0000--2-2-22--0-00-0000--2-2-2--|
|-------0-0--2-2--0-0-0-0----||--------------0-0-00--2-22-2222--0-0-0--|
|------------3-3-------------||----------------------3-33-3333---------|

Pre-Chorus: (x2)

        Bm             F#m              G                   A
|-x-2-x-2-x-2-x-2---x-2-x-2-x-2-x-2---x-3-x-3-x-3-x-3---x-5-x-5-x-5-x-5--------------|
|-x-3-x-3-x-3-x-3---x-2-x-2-x-2-x-2---x-3-x-3-x-3-x-3---x-5-x-5-x-5-x-5--------------|
|-x-4-x-4-x-4-x-4---x-2-x-2-x-2-x-2---x-4-x-4-x-4-x-4---x-6-x-6-x-6-x-6--------------|
|-x-4-x-4-x-4-x-4---x-4-x-4-x-4-x-4---x-5-x-5-x-5-x-5---x-7-x-7-x-7-x-7--------------|
|-x-2-x-2-x-2-x-2---x-4-x-4-x-4-x-4---x-5-x-5-x-5-x-5---x-7-x-7-x-7-x-7--------------|
|-------------------x-2-x-2-x-2-x-2---x-3-x-3-x-3-x-3---x-5-x-5-x-5-x-5--------------|

(Korbi Chol....)(x1)
------------------------|
-7-7-7-7-7-7-7-7--------|
-7-7-7-7-7-7-7-7--------|
-7-7-7-7-7-7-7-7--------|
-5-5-5-5-5-5-5-5--------|
------------------------|

Chorus: (x4)
   D    A    G     A
|--2-2--0-0--3-3--0-0-0-0----|
|--3-3--2-2--3-3--2-2-2-2----|
|--2-2--2-2--0-0--2-2-2-2----|
|--0-0--2-2--0-0--2-2-2-2----|
|-------0-0--2-2--0-0-0-0----|
|------------3-3-------------|

The 'Sort of Solo' thing:

|-----------------------------------------------------------------------------|
|-----------------777---------------77----------------777-----8-88-7----------|
|-----7---7---7-9-----999-777-9-999----999--7-77-9-7~-----999--------9-7~-----|
|-7h9---9---9-----------------------------------------------------------------|
|-----------------------------------------------------------------------------|
|-----------------------------------------------------------------------------|

-----10----10--10--10--10--10--10--10~--|
---8----8----8---8---8---8---8---8------|
----------------------------------------|
----------------------------------------|
----------------------------------------|
----------------------------------------|


Bridge:

Single strum the pre-chorus chords.


The rest you should figure out. :)


Comments are most welcome, hope to tab more Bangladeshi songs in the future .

GOD OF ROCK!!! GIVE ME POWER!!!
Tap to rate this tab
# A B C D E F G H I J K L M N O P Q R S T U V W X Y Z