Song name
# A B C D E F G H I J K L M N O P Q R S T U V W X Y Z

Yacht - Ring The Bell tab

Song: Ring the Bell
Artist: YACHT (http://www.myspace.com/yacht)
Album: "See Mystery Lights" [2009]

Tab by Devin Miller

Tuning: Standard EADGBe

**********************************************************************

The reason the guitar riff feels slightly odd is because it's in 7/8
time...whereas the song is in simply 4/4.

e|--2----2----4--2--|---2--2-----7-5--7--5--4--|
B|--4----4----5--4--|---4--4-----7-5--7--5--5--|
G|--4----4----6--4--|---4--4-----8-6--8--6--4--|
D|------------------|--------------------------|
A|------------------|--------------------------|
E|------------------|--------------------------|

**********************************************************************

Guitar riff in middle of song:

e|---------------------|----------------------|
B|-----------------4---|-----------------4----|
G|-4--4--6-4--4-4----6-|-4--4--6-4--4-4-----6-|
D|---------------------|----------------------|
A|---------------------|----------------------|
E|---------------------|----------------------|

Riff variation:

e|---------------------|--------------------------|
B|-----------------4---|----------------4-4-----4-|
G|-4--4--6-4--4-4----6-|-4--4--6-4--4-4-----6-6---|
D|---------------------|--------------------------|
A|---------------------|--------------------------|
E|---------------------|--------------------------|


==========================================================================
Tap to rate this tab
 
# A B C D E F G H I J K L M N O P Q R S T U V W X Y Z