Song name
# A B C D E F G H I J K L M N O P Q R S T U V W X Y Z

Yakuzi - Dont Pogo With Your Espandrillos tab

/  Slide

e  ----------------------------------------------|
b  ----------------------------------------------|
g  ----------------------------------------------|
d  0-7-4-5-4-------0-7-4-5-7-7-7---0-7-4-5-4-----|
a  ----------5/7-----------------------------5/7-|
e  ----------------------------------------------|


e  --------------|
b  --------------|
g  --------------|
d  ----4-5-4-0---|
a  7-7---------7-|
e  --------------|


Play this three times.
Then the songs starts.
But i didnīt hear this part yet ^^

Have Fun
Tap to rate this tab
# A B C D E F G H I J K L M N O P Q R S T U V W X Y Z